  0
SECTION
  2
HEADER
  9
$ACADVER
  1
AC1015
  9
$ACADMAINTVER
 70
     6
  9
$DWGCODEPAGE
  3
DOS850
  9
$INSBASE
 10
0.0
 20
0.0
 30
0.0
  9
$EXTMIN
 10
-62.9199
 20
-57.2453
 30
1.000000E+20
  9
$EXTMAX
 10
49.4563
 20
37.031
 30
-1.000000E+20
  9
$LIMMIN
 10
0.0
 20
0.0
  9
$LIMMAX
 10
0.0
 20
0.0
  9
$ORTHOMODE
 70
     0
  9
$REGENMODE
 70
     1
  9
$FILLMODE
 70
     1
  9
$QTEXTMODE
 70
     0
  9
$MIRRTEXT
 70
     1
  9
$LTSCALE
 40
1.0
  9
$ATTMODE
 70
     1
  9
$TEXTSIZE
 40
0.2
  9
$TRACEWID
 40
0.05
  9
$TEXTSTYLE
  7
Standard
  9
$CLAYER
  8
0
  9
$CELTYPE
  6
Continuous
  9
$CECOLOR
 62
   256
  9
$CELTSCALE
 40
1.0
  9
$DISPSILH
 70
     0
  9
$DIMSCALE
 40
1.0
  9
$DIMASZ
 40
0.18
  9
$DIMEXO
 40
0.0625
  9
$DIMDLI
 40
0.38
  9
$DIMRND
 40
0.0
  9
$DIMDLE
 40
0.0
  9
$DIMEXE
 40
0.18
  9
$DIMTP
 40
0.0
  9
$DIMTM
 40
0.0
  9
$DIMTXT
 40
0.18
  9
$DIMCEN
 40
0.09
  9
$DIMTSZ
 40
0.0
  9
$DIMTOL
 70
     0
  9
$DIMLIM
 70
     0
  9
$DIMTIH
 70
     1
  9
$DIMTOH
 70
     1
  9
$DIMSE1
 70
     0
  9
$DIMSE2
 70
     0
  9
$DIMTAD
 70
     0
  9
$DIMZIN
 70
     0
  9
$DIMBLK
  1

  9
$DIMASO
 70
     1
  9
$DIMSHO
 70
     1
  9
$DIMPOST
  1

  9
$DIMAPOST
  1

  9
$DIMALT
 70
     0
  9
$DIMALTD
 70
     2
  9
$DIMALTF
 40
25.4
  9
$DIMLFAC
 40
1.0
  9
$DIMTOFL
 70
     0
  9
$DIMTVP
 40
0.0
  9
$DIMTIX
 70
     0
  9
$DIMSOXD
 70
     0
  9
$DIMSAH
 70
     0
  9
$DIMBLK1
  1

  9
$DIMBLK2
  1

  9
$DIMSTYLE
  2
Standard
  9
$DIMCLRD
 70
     0
  9
$DIMCLRE
 70
     0
  9
$DIMCLRT
 70
     0
  9
$DIMTFAC
 40
1.0
  9
$DIMGAP
 40
0.09
  9
$DIMJUST
 70
     0
  9
$DIMSD1
 70
     0
  9
$DIMSD2
 70
     0
  9
$DIMTOLJ
 70
     1
  9
$DIMTZIN
 70
     0
  9
$DIMALTZ
 70
     0
  9
$DIMALTTZ
 70
     0
  9
$DIMUPT
 70
     0
  9
$DIMDEC
 70
     4
  9
$DIMTDEC
 70
     4
  9
$DIMALTU
 70
     2
  9
$DIMALTTD
 70
     2
  9
$DIMTXSTY
  7
Standard
  9
$DIMAUNIT
 70
     0
  9
$DIMADEC
 70
     0
  9
$DIMALTRND
 40
0.0
  9
$DIMAZIN
 70
     0
  9
$DIMDSEP
 70
     0
  9
$DIMATFIT
 70
     3
  9
$DIMFRAC
 70
     0
  9
$DIMLDRBLK
  1

  9
$DIMLUNIT
 70
     2
  9
$DIMLWD
 70
     0
  9
$DIMLWE
 70
     0
  9
$DIMTMOVE
 70
     0
  9
$LUNITS
 70
     2
  9
$LUPREC
 70
     4
  9
$SKETCHINC
 40
0.1
  9
$FILLETRAD
 40
0.0
  9
$AUNITS
 70
     0
  9
$AUPREC
 70
     0
  9
$MENU
  1
acad
  9
$ELEVATION
 40
0.0
  9
$PELEVATION
 40
0.0
  9
$THICKNESS
 40
0.0
  9
$LIMCHECK
 70
     0
  9
$CHAMFERA
 40
0.0
  9
$CHAMFERB
 40
0.0
  9
$CHAMFERC
 40
0.0
  9
$CHAMFERD
 40
0.0
  9
$SKPOLY
 70
     0
  9
$TDCREATE
 40
0.000000000
  9
$TDUCREATE
 40
0.000000000
  9
$TDUPDATE
 40
0.000000000
  9
$TDUUPDATE
 40
0.000000000
  9
$TDINDWG
 40
0.0000000000
  9
$TDUSRTIMER
 40
0.0000000000
  9
$USRTIMER
 70
     1
  9
$ANGBASE
 50
0.0
  9
$ANGDIR
 70
     0
  9
$PDMODE
 70
     0
  9
$PDSIZE
 40
0.0
  9
$PLINEWID
 40
0.0
  9
$SPLFRAME
 70
     0
  9
$SPLINETYPE
 70
     6
  9
$SPLINESEGS
 70
     8
  9
$HANDSEED
  5
114
  9
$SURFTAB1
 70
     6
  9
$SURFTAB2
 70
     6
  9
$SURFTYPE
 70
     6
  9
$SURFU
 70
     6
  9
$SURFV
 70
     6
  9
$UCSBASE
  2

  9
$UCSNAME
  2

  9
$UCSORG
 10
0.0
 20
0.0
 30
0.0
  9
$UCSXDIR
 10
1.0
 20
0.0
 30
0.0
  9
$UCSYDIR
 10
0.0
 20
1.0
 30
0.0
  9
$UCSORTHOREF
  2

  9
$UCSORTHOVIEW
 70
     0
  9
$UCSORGTOP
 10
0.0
 20
0.0
 30
0.0
  9
$UCSORGBOTTOM
 10
0.0
 20
0.0
 30
0.0
  9
$UCSORGLEFT
 10
0.0
 20
0.0
 30
0.0
  9
$UCSORGRIGHT
 10
0.0
 20
0.0
 30
0.0
  9
$UCSORGFRONT
 10
0.0
 20
0.0
 30
0.0
  9
$UCSORGBACK
 10
0.0
 20
0.0
 30
0.0
  9
$PUCSBASE
  2

  9
$PUCSNAME
  2

  9
$PUCSORG
 10
0.0
 20
0.0
 30
0.0
  9
$PUCSXDIR
 10
1.0
 20
0.0
 30
0.0
  9
$PUCSYDIR
 10
0.0
 20
1.0
 30
0.0
  9
$PUCSORTHOREF
  2

  9
$PUCSORTHOVIEW
 70
     0
  9
$PUCSORGTOP
 10
0.0
 20
0.0
 30
0.0
  9
$PUCSORGBOTTOM
 10
0.0
 20
0.0
 30
0.0
  9
$PUCSORGLEFT
 10
0.0
 20
0.0
 30
0.0
  9
$PUCSORGRIGHT
 10
0.0
 20
0.0
 30
0.0
  9
$PUCSORGFRONT
 10
0.0
 20
0.0
 30
0.0
  9
$PUCSORGBACK
 10
0.0
 20
0.0
 30
0.0
  9
$USERI1
 70
     0
  9
$USERI2
 70
     0
  9
$USERI3
 70
     0
  9
$USERI4
 70
     0
  9
$USERI5
 70
     0
  9
$USERR1
 40
0.0
  9
$USERR2
 40
0.0
  9
$USERR3
 40
0.0
  9
$USERR4
 40
0.0
  9
$USERR5
 40
0.0
  9
$WORLDVIEW
 70
     1
  9
$SHADEDGE
 70
     3
  9
$SHADEDIF
 70
    70
  9
$TILEMODE
 70
     1
  9
$MAXACTVP
 70
    16
  9
$PINSBASE
 10
0.0
 20
0.0
 30
0.0
  9
$PLIMCHECK
 70
     0
  9
$PEXTMIN
 10
1.000000E+20
 20
1.000000E+20
 30
1.000000E+20
  9
$PEXTMAX
 10
-1.000000E+20
 20
-1.000000E+20
 30
-1.000000E+20
  9
$PLIMMIN
 10
0.0
 20
0.0
  9
$PLIMMAX
 10
12.0
 20
9.0
  9
$UNITMODE
 70
     0
  9
$VISRETAIN
 70
     0
  9
$PLINEGEN
 70
     1
  9
$PSLTSCALE
 70
     0
  9
$TREEDEPTH
 70
  3020
  9
$CMLSTYLE
  2
Standard
  9
$CMLJUST
 70
     0
  9
$CMLSCALE
 40
1.0
  9
$PROXYGRAPHICS
 70
     0
  9
$MEASUREMENT
 70
     0
  9
$CELWEIGHT
370
     0
  9
$ENDCAPS
280
     0
  9
$JOINSTYLE
280
     0
  9
$LWDISPLAY
290
     0
  9
$INSUNITS
 70
     4
  9
$HYPERLINKBASE
  1

  9
$XEDIT
290
     1
  9
$CEPSNTYPE
380
     0
  9
$PSTYLEMODE
290
     1
  9
$FINGERPRINTGUID
  2

  9
$VERSIONGUID
  2

  9
$EXTNAMES
290
     1
  9
$PSVPSCALE
 40
0.0
  0
ENDSEC
  0
SECTION
  2
CLASSES
  0
CLASS
  1
LWPOLYLINE
  2
AcDbPolyline
  3
AutoCAD 2000
 90
    32768
280
     0
281
     1
  0
CLASS
  1
IMAGE
  2
AcDbRasterImage
  3
ISM
 90
    32895
280
     0
281
     1
  0
CLASS
  1
OLE2FRAME
  2
AcDbOle2Frame
  3
AutoCAD 2000
 90
    32768
280
     0
281
     1
  0
CLASS
  1
HATCH
  2
AcDbHatch
  3
AutoCAD 2000
 90
    32768
280
     0
281
     1
  0
CLASS
  1
DICTIONARYVAR
  2
AcDbDictionaryVar
  3
AutoCAD 2000
 90
    32768
280
     0
281
     0
  0
CLASS
  1
RASTERVARIABLES
  2
AcDbRasterVariables
  3
ISM
 90
    32768
280
     0
281
     0
  0
CLASS
  1
IMAGEDEF
  2
AcDbRasterImageDef
  3
ISM
 90
    32768
280
     0
281
     0
  0
CLASS
  1
IMAGEDEF_REACTOR
  2
AcDbRasterImageDefReactor
  3
ISM
 90
    32769
280
     0
281
     0
  0
CLASS
  1
IDBUFFER
  2
AcDbIdBuffer
  3
AutoCAD 2000
 90
    32768
280
     0
281
     0
  0
CLASS
  1
SPATIAL_FILTER
  2
AcDbSpatialFilter
  3
AutoCAD 2000
 90
    32768
280
     0
281
     0
  0
CLASS
  1
XRECORD
  2
AcDbXrecord
  3
AutoCAD 2000
 90
    32768
280
     0
281
     0
  0
CLASS
  1
SORTENTSTABLE
  2
AcDbSortentsTable
  3
AutoCAD 2000
 90
    32768
280
     0
281
     0
  0
CLASS
  1
LAYER_INDEX
  2
AcDbLayerIndex
  3
AutoCAD 2000
 90
    32768
280
     0
281
     0
  0
CLASS
  1
SPATIAL_INDEX
  2
AcDbSpatialIndex
  3
AutoCAD 2000
 90
    32768
280
     0
281
     0
  0
CLASS
  1
OBJECT_PTR
  2
CAseDLPNTableRecord
  3
"ASE-LPNTableRecord"
 90
    32769
280
     0
281
     0
  0
CLASS
  1
LAYOUT
  2
AcDbLayout
  3
AutoCAD 2000
 90
        0
280
     0
281
     0
  0
CLASS
  1
PLOTSETTINGS
  2
AcDbPlotSettings
  3
AutoCAD 2000
 90
    32768
280
     0
281
     0
  0
CLASS
  1
ACDBDICTIONARYWDFLT
  2
AcDbDictionaryWithDefault
  3
AutoCAD 2000
 90
        0
280
     0
281
     0
  0
CLASS
  1
ACDBPLACEHOLDER
  2
AcDbPlaceHolder
  3
AutoCAD 2000
 90
        0
280
     0
281
     0
  0
CLASS
  1
VBA_PROJECT
  2
AcDbVbaProject
  3
acadvba
 90
    32768
280
     0
281
     0
  0
CLASS
  1
WIPEOUT
  2
AcDbWipeout
  3
WipeOut|AutoCAD Express Tool|expresstools@autodesk.com
 90
    32895
280
     0
281
     1
  0
CLASS
  1
WIPEOUTVARIABLES
  2
AcDbWipeoutVariables
  3
WipeOut|AutoCAD Express Tool|expresstools@autodesk.com
 90
        0
280
     0
281
     0
  0
CLASS
  1
RTEXT
  2
RText
  3
RText|AutoCAD Express Tool|expresstools@autodesk.com
 90
    32768
280
     0
281
     1
  0
CLASS
  1
ARCALIGNEDTEXT
  2
AcDbArcAlignedText
  3
ATEXT|AutoCAD Express Tool|expresstools@autodesk.com
 90
    32768
280
     0
281
     1
  0
ENDSEC
  0
SECTION
  2
TABLES
  0
TABLE
  2
VPORT
  5
7
100
AcDbSymbolTable
 70
     1
  0
VPORT
  5
15
100
AcDbSymbolTableRecord
100
AcDbViewportTableRecord
  2
*ACTIVE
 70
     0
 10
0.0
 20
0.0
 11
1.0
 21
1.0
 12
6.591288
 22
4.579184
 13
0.0
 23
0.0
 14
1.0
 24
1.0
 15
0.0
 25
0.0
 16
0.0
 26
0.0
 36
1.0
 17
0.0
 27
0.0
 37
0.0
 40
9.158369
 41
0.688564
 42
50.0
 43
0.0
 44
0.0
 50
0.0
 51
0.0
 71
     0
 72
   100
 73
     1
 74
     1
 75
     0
 76
     0
 77
     0
 78
     0
281
     0
 65
     0
110
0.0
120
0.0
130
0.0
111
1.0
121
0.0
131
0.0
112
0.0
122
1.0
132
0.0
345
0
346
0
 79
     0
146
0.0
  0
ENDTAB
  0
TABLE
  2
LTYPE
  5
4
100
AcDbSymbolTable
 70
     4
  0
LTYPE
  5
11
100
AcDbSymbolTableRecord
100
AcDbLinetypeTableRecord
  2
ByBlock
 70
    64
  3

 72
    65
 73
     0
 40
0.0
  0
LTYPE
  5
12
100
AcDbSymbolTableRecord
100
AcDbLinetypeTableRecord
  2
ByLayer
 70
    64
  3

 72
    65
 73
     0
 40
0.0
  0
LTYPE
  5
13
100
AcDbSymbolTableRecord
100
AcDbLinetypeTableRecord
  2
Continuous
 70
    64
  3
Solid line
 72
    65
 73
     0
 40
0.0
  0
LTYPE
  5
2E
100
AcDbSymbolTableRecord
100
AcDbLinetypeTableRecord
  2
New Line1
 70
    65
  3

 72
    64
 73
     4
 40
2.4
 49
1.8
 74
     0
 49
-0.2
 74
     0
 49
0.2
 74
     0
 49
-0.2
 74
     0
  0
ENDTAB
  0
TABLE
  2
LAYER
  5
2
100
AcDbSymbolTable
 70
     2
  0
LAYER
  5
14
100
AcDbSymbolTableRecord
100
AcDbLayerTableRecord
  2
0
 70
     0
 62
     7
  6
Continuous
290
     1
370
    -3
390
1D
  0
LAYER
  5
24
100
AcDbSymbolTableRecord
100
AcDbLayerTableRecord
  2
Ebene 1
 70
     0
 62
     7
  6
Continuous
290
     1
370
    -3
390
1F
  0
ENDTAB
  0
TABLE
  2
STYLE
  5
3
100
AcDbSymbolTable
 70
     1
  0
STYLE
  5
17
100
AcDbSymbolTableRecord
100
AcDbTextStyleTableRecord
  2
Standard
 70
     0
 40
0.0
 41
1.0
 50
0.0
 71
     0
 42
0.0
  3
txt
  4

  0
ENDTAB
  0
TABLE
  2
VIEW
  5
5
100
AcDbSymbolTable
 70
     0
  0
ENDTAB
  0
TABLE
  2
UCS
  5
6
100
AcDbSymbolTable
 70
     0
  0
ENDTAB
  0
TABLE
  2
APPID
  5
8
100
AcDbSymbolTable
 70
     1
  0
APPID
  5
16
100
AcDbSymbolTableRecord
100
AcDbRegAppTableRecord
  2
ACAD
 70
     0
  0
ENDTAB
  0
TABLE
  2
DIMSTYLE
  5
9
100
AcDbSymbolTable
 70
     1
100
AcDbDimStyleTable
 71
     0
  0
DIMSTYLE
105
18
100
AcDbSymbolTableRecord
100
AcDbDimStyleTableRecord
  2
Standard
 70
     0
  3

  4

 40
1.0
 41
0.18
 42
0.0625
 43
0.38
 44
0.18
 45
0.0
 46
0.0
 47
0.0
 48
0.0
 71
     0
 72
     0
 73
     1
 74
     1
 75
     0
 76
     0
 77
     0
 78
     0
 79
     0
140
0.18
141
0.09
142
0.0
143
25.4
144
1.0
145
0.0
146
1.0
147
0.09
148
0.0
170
     0
171
     2
172
     0
173
     0
174
     0
175
     0
176
     0
177
     0
178
     0
179
     0
271
     4
272
     4
273
     2
274
     2
275
     0
276
     0
277
     2
278
    46
279
     0
280
     0
281
     0
282
     0
283
     1
284
     0
285
     0
286
     0
288
     0
340
17
341
0
342
0
343
0
344
0
371
    -2
372
    -2
  0
ENDTAB
  0
TABLE
  2
BLOCK_RECORD
  5
1
100
AcDbSymbolTable
 70
     0
  0
BLOCK_RECORD
  5
A
100
AcDbSymbolTableRecord
100
AcDbBlockTableRecord
  2
*MODEL_SPACE
340
20
  0
BLOCK_RECORD
  5
B
100
AcDbSymbolTableRecord
100
AcDbBlockTableRecord
  2
*PAPER_SPACE
340
21
  0
ENDTAB
  0
ENDSEC
  0
SECTION
  2
BLOCKS
  0
BLOCK
  5
D
100
AcDbEntity
  8
0
100
AcDbBlockBegin
  2
*MODEL_SPACE
 70
     0
 10
0.0
 20
0.0
 30
0.0
  3
*MODEL_SPACE
  1

  0
ENDBLK
  5
E
100
AcDbEntity
  8
0
100
AcDbBlockEnd
  0
BLOCK
  5
F
100
AcDbEntity
 67
     1
  8
0
100
AcDbBlockBegin
  2
*PAPER_SPACE
 70
     0
 10
0.0
 20
0.0
 30
0.0
  3
*PAPER_SPACE
  1

  0
ENDBLK
  5
10
100
AcDbEntity
 67
     1
  8
0
100
AcDbBlockEnd
  0
ENDSEC
  0
SECTION
  2
ENTITIES
  0
SPLINE
  5
25
100
AcDbEntity
  8
Ebene 1
100
AcDbSpline
210
0.0
220
0.0
230
1.0
 70
     1
 71
     3
 72
    40
 73
    36
 74
     0
 42
0.0000000001
 43
0.0000000001
 40
0.0
 40
0.0
 40
0.0
 40
0.0
 40
0.1111111111111111
 40
0.1111111111111111
 40
0.1111111111111111
 40
0.1111111111111111
 40
0.2222222222222222
 40
0.2222222222222222
 40
0.2222222222222222
 40
0.2222222222222222
 40
0.3333333333333333
 40
0.3333333333333333
 40
0.3333333333333333
 40
0.3333333333333333
 40
0.4444444444444444
 40
0.4444444444444444
 40
0.4444444444444444
 40
0.4444444444444444
 40
0.5555555555555556
 40
0.5555555555555556
 40
0.5555555555555556
 40
0.5555555555555556
 40
0.6666666666666667
 40
0.6666666666666667
 40
0.6666666666666667
 40
0.6666666666666667
 40
0.7777777777777779
 40
0.7777777777777779
 40
0.7777777777777779
 40
0.7777777777777779
 40
0.8888888888888891
 40
0.8888888888888891
 40
0.8888888888888891
 40
0.8888888888888891
 40
1.0
 40
1.0
 40
1.0
 40
1.0
 10
-37.387700000000002
 20
-47.3459
 30
0.0
 10
-37.387700000000002
 20
-47.3459
 30
0.0
 10
-36.588000000000001
 20
-43.5334
 30
0.0
 10
-36.588000000000001
 20
-43.5334
 30
0.0
 10
-36.588000000000001
 20
-43.5334
 30
0.0
 10
-36.932600000000001
 20
-43.803899999999999
 30
0.0
 10
-37.417100000000005
 20
-44.0214
 30
0.0
 10
-38.041499999999999
 20
-44.184699999999999
 30
0.0
 10
-38.041499999999999
 20
-44.184699999999999
 30
0.0
 10
-38.041499999999999
 20
-44.184699999999999
 30
0.0
 10
-37.9251
 20
-43.619300000000003
 30
0.0
 10
-37.9251
 20
-43.619300000000003
 30
0.0
 10
-37.9251
 20
-43.619300000000003
 30
0.0
 10
-37.614600000000003
 20
-43.495899999999999
 30
0.0
 10
-37.308900000000001
 20
-43.333600000000004
 30
0.0
 10
-37.006599999999999
 20
-43.133800000000001
 30
0.0
 10
-37.006599999999999
 20
-43.133800000000001
 30
0.0
 10
-36.7044
 20
-42.933900000000001
 30
0.0
 10
-36.477499999999999
 20
-42.760000000000005
 30
0.0
 10
-36.325800000000001
 20
-42.610600000000005
 30
0.0
 10
-36.325800000000001
 20
-42.610600000000005
 30
0.0
 10
-36.234100000000005
 20
-42.518900000000002
 30
0.0
 10
-36.146999999999998
 20
-42.407299999999999
 30
0.0
 10
-36.064700000000002
 20
-42.275600000000004
 30
0.0
 10
-36.064700000000002
 20
-42.275600000000004
 30
0.0
 10
-36.064700000000002
 20
-42.275600000000004
 30
0.0
 10
-35.702500000000001
 20
-42.275600000000004
 30
0.0
 10
-35.702500000000001
 20
-42.275600000000004
 30
0.0
 10
-35.702500000000001
 20
-42.275600000000004
 30
0.0
 10
-35.702500000000001
 20
-42.275600000000004
 30
0.0
 10
-36.759700000000002
 20
-47.3459
 30
0.0
 10
-36.759700000000002
 20
-47.3459
 30
0.0
 10
-36.759700000000002
 20
-47.3459
 30
0.0
 10
-36.759700000000002
 20
-47.3459
 30
0.0
 10
-37.387700000000002
 20
-47.3459
 30
0.0
 10
-37.387700000000002
 20
-47.3459
 30
0.0
  0
SPLINE
  5
26
100
AcDbEntity
  8
Ebene 1
100
AcDbSpline
210
0.0
220
0.0
230
1.0
 70
     1
 71
     3
 72
    84
 73
    80
 74
     0
 42
0.0000000001
 43
0.0000000001
 40
0.0
 40
0.0
 40
0.0
 40
0.0
 40
0.05
 40
0.05
 40
0.05
 40
0.05
 40
0.1
 40
0.1
 40
0.1
 40
0.1
 40
0.15
 40
0.15
 40
0.15
 40
0.15
 40
0.2
 40
0.2
 40
0.2
 40
0.2
 40
0.25
 40
0.25
 40
0.25
 40
0.25
 40
0.3
 40
0.3
 40
0.3
 40
0.3
 40
0.35
 40
0.35
 40
0.35
 40
0.35
 40
0.4
 40
0.4
 40
0.4
 40
0.4
 40
0.45
 40
0.45
 40
0.45
 40
0.45
 40
0.4999999999999999
 40
0.4999999999999999
 40
0.4999999999999999
 40
0.4999999999999999
 40
0.5499999999999999
 40
0.5499999999999999
 40
0.5499999999999999
 40
0.5499999999999999
 40
0.6
 40
0.6
 40
0.6
 40
0.6
 40
0.65
 40
0.65
 40
0.65
 40
0.65
 40
0.7000000000000001
 40
0.7000000000000001
 40
0.7000000000000001
 40
0.7000000000000001
 40
0.7500000000000001
 40
0.7500000000000001
 40
0.7500000000000001
 40
0.7500000000000001
 40
0.8000000000000002
 40
0.8000000000000002
 40
0.8000000000000002
 40
0.8000000000000002
 40
0.8500000000000002
 40
0.8500000000000002
 40
0.8500000000000002
 40
0.8500000000000002
 40
0.9000000000000002
 40
0.9000000000000002
 40
0.9000000000000002
 40
0.9000000000000002
 40
0.9500000000000003
 40
0.9500000000000003
 40
0.9500000000000003
 40
0.9500000000000003
 40
1.0
 40
1.0
 40
1.0
 40
1.0
 10
-60.776900000000005
 20
-8.8303000000000011
 30
0.0
 10
-60.921400000000006
 20
-8.6562999999999999
 30
0.0
 10
-61.030800000000006
 20
-8.4823000000000004
 30
0.0
 10
-61.102500000000006
 20
-8.3082000000000011
 30
0.0
 10
-61.102500000000006
 20
-8.3082000000000011
 30
0.0
 10
-61.175400000000003
 20
-8.1354000000000006
 30
0.0
 10
-61.210700000000003
 20
-7.9637000000000002
 30
0.0
 10
-61.210700000000003
 20
-7.7932000000000006
 30
0.0
 10
-61.210700000000003
 20
-7.7932000000000006
 30
0.0
 10
-61.210700000000003
 20
-7.4098000000000006
 30
0.0
 10
-61.080200000000005
 20
-7.0923000000000007
 30
0.0
 10
-60.818000000000005
 20
-6.843
 30
0.0
 10
-60.818000000000005
 20
-6.843
 30
0.0
 10
-60.557100000000005
 20
-6.5925000000000002
 30
0.0
 10
-60.2044
 20
-6.4667000000000003
 30
0.0
 10
-59.761200000000002
 20
-6.4667000000000003
 30
0.0
 10
-59.761200000000002
 20
-6.4667000000000003
 30
0.0
 10
-59.189900000000002
 20
-6.4667000000000003
 30
0.0
 10
-58.699600000000004
 20
-6.6525000000000007
 30
0.0
 10
-58.290500000000002
 20
-7.0253000000000005
 30
0.0
 10
-58.290500000000002
 20
-7.0253000000000005
 30
0.0
 10
-57.939
 20
-7.3463000000000003
 30
0.0
 10
-57.7639
 20
-7.7367000000000008
 30
0.0
 10
-57.7639
 20
-8.1965000000000003
 30
0.0
 10
-57.7639
 20
-8.1965000000000003
 30
0.0
 10
-57.7639
 20
-8.6140000000000008
 30
0.0
 10
-57.916600000000003
 20
-8.9632000000000005
 30
0.0
 10
-58.223500000000001
 20
-9.2419000000000011
 30
0.0
 10
-58.223500000000001
 20
-9.2419000000000011
 30
0.0
 10
-58.5304
 20
-9.5206
 30
0.0
 10
-58.9664
 20
-9.6606000000000005
 30
0.0
 10
-59.534300000000002
 20
-9.6606000000000005
 30
0.0
 10
-59.534300000000002
 20
-9.6606000000000005
 30
0.0
 10
-60.040900000000001
 20
-9.6606000000000005
 30
0.0
 10
-60.566500000000005
 20
-9.571200000000001
 30
0.0
 10
-61.107200000000006
 20
-9.3913000000000011
 30
0.0
 10
-61.107200000000006
 20
-9.3913000000000011
 30
0.0
 10
-61.523400000000002
 20
-9.2537000000000003
 30
0.0
 10
-61.866700000000002
 20
-9.0831999999999997
 30
0.0
 10
-62.135899999999999
 20
-8.8796999999999997
 30
0.0
 10
-62.135899999999999
 20
-8.8796999999999997
 30
0.0
 10
-62.405000000000001
 20
-8.6775000000000002
 30
0.0
 10
-62.603700000000003
 20
-8.4611000000000001
 30
0.0
 10
-62.729500000000002
 20
-8.2330000000000005
 30
0.0
 10
-62.729500000000002
 20
-8.2330000000000005
 30
0.0
 10
-62.856500000000004
 20
-8.0037000000000003
 30
0.0
 10
-62.919900000000005
 20
-7.7461000000000002
 30
0.0
 10
-62.919900000000005
 20
-7.4592000000000001
 30
0.0
 10
-62.919900000000005
 20
-7.4592000000000001
 30
0.0
 10
-62.919900000000005
 20
-7.1147
 30
0.0
 10
-62.811800000000005
 20
-6.8336000000000006
 30
0.0
 10
-62.597800000000007
 20
-6.6149000000000004
 30
0.0
 10
-62.597800000000007
 20
-6.6149000000000004
 30
0.0
 10
-62.3827
 20
-6.3973000000000004
 30
0.0
 10
-62.075900000000004
 20
-6.2727000000000004
 30
0.0
 10
-61.676200000000001
 20
-6.2433000000000005
 30
0.0
 10
-61.676200000000001
 20
-6.2433000000000005
 30
0.0
 10
-61.676200000000001
 20
-6.2433000000000005
 30
0.0
 10
-61.620900000000006
 20
-6.8219000000000003
 30
0.0
 10
-61.620900000000006
 20
-6.8219000000000003
 30
0.0
 10
-61.620900000000006
 20
-6.8219000000000003
 30
0.0
 10
-61.893700000000003
 20
-6.8536000000000001
 30
0.0
 10
-62.091200000000001
 20
-6.9312000000000005
 30
0.0
 10
-62.213500000000003
 20
-7.0547000000000004
 30
0.0
 10
-62.213500000000003
 20
-7.0547000000000004
 30
0.0
 10
-62.334500000000006
 20
-7.1770000000000005
 30
0.0
 10
-62.395600000000002
 20
-7.3275000000000006
 30
0.0
 10
-62.395600000000002
 20
-7.5039000000000007
 30
0.0
 10
-62.395600000000002
 20
-7.5039000000000007
 30
0.0
 10
-62.395600000000002
 20
-7.6897000000000002
 30
0.0
 10
-62.323900000000002
 20
-7.8767000000000005
 30
0.0
 10
-62.179400000000001
 20
-8.0660000000000007
 30
0.0
 10
-62.179400000000001
 20
-8.0660000000000007
 30
0.0
 10
-62.034700000000001
 20
-8.2541000000000011
 30
0.0
 10
-61.819600000000001
 20
-8.4152000000000005
 30
0.0
 10
-61.536300000000004
 20
-8.5517000000000003
 30
0.0
 10
-61.536300000000004
 20
-8.5517000000000003
 30
0.0
 10
-61.252900000000004
 20
-8.6868999999999996
 30
0.0
 10
-61.0002
 20
-8.7797999999999998
 30
0.0
 10
-60.776900000000005
 20
-8.8303000000000011
 30
0.0
  0
SPLINE
  5
27
100
AcDbEntity
  8
Ebene 1
100
AcDbSpline
210
0.0
220
0.0
230
1.0
 70
     1
 71
     3
 72
    40
 73
    36
 74
     0
 42
0.0000000001
 43
0.0000000001
 40
0.0
 40
0.0
 40
0.0
 40
0.0
 40
0.1111111111111111
 40
0.1111111111111111
 40
0.1111111111111111
 40
0.1111111111111111
 40
0.2222222222222222
 40
0.2222222222222222
 40
0.2222222222222222
 40
0.2222222222222222
 40
0.3333333333333333
 40
0.3333333333333333
 40
0.3333333333333333
 40
0.3333333333333333
 40
0.4444444444444444
 40
0.4444444444444444
 40
0.4444444444444444
 40
0.4444444444444444
 40
0.5555555555555556
 40
0.5555555555555556
 40
0.5555555555555556
 40
0.5555555555555556
 40
0.6666666666666667
 40
0.6666666666666667
 40
0.6666666666666667
 40
0.6666666666666667
 40
0.7777777777777779
 40
0.7777777777777779
 40
0.7777777777777779
 40
0.7777777777777779
 40
0.8888888888888891
 40
0.8888888888888891
 40
0.8888888888888891
 40
0.8888888888888891
 40
1.0
 40
1.0
 40
1.0
 40
1.0
 10
-59.268600000000006
 20
-9.0479000000000003
 30
0.0
 10
-58.984100000000005
 20
-9.0479000000000003
 30
0.0
 10
-58.744300000000003
 20
-8.9585000000000008
 30
0.0
 10
-58.550400000000003
 20
-8.7820999999999998
 30
0.0
 10
-58.550400000000003
 20
-8.7820999999999998
 30
0.0
 10
-58.356300000000005
 20
-8.6057000000000006
 30
0.0
 10
-58.259900000000002
 20
-8.405800000000001
 30
0.0
 10
-58.259900000000002
 20
-8.1824000000000012
 30
0.0
 10
-58.259900000000002
 20
-8.1824000000000012
 30
0.0
 10
-58.259900000000002
 20
-8.0259999999999998
 30
0.0
 10
-58.3187
 20
-7.8614000000000006
 30
0.0
 10
-58.4375
 20
-7.6862000000000004
 30
0.0
 10
-58.4375
 20
-7.6862000000000004
 30
0.0
 10
-58.555100000000003
 20
-7.5121000000000002
 30
0.0
 10
-58.734900000000003
 20
-7.3640000000000008
 30
0.0
 10
-58.9758
 20
-7.2417000000000007
 30
0.0
 10
-58.9758
 20
-7.2417000000000007
 30
0.0
 10
-59.216900000000003
 20
-7.1205000000000007
 30
0.0
 10
-59.456700000000005
 20
-7.0594000000000001
 30
0.0
 10
-59.695300000000003
 20
-7.0594000000000001
 30
0.0
 10
-59.695300000000003
 20
-7.0594000000000001
 30
0.0
 10
-60.003300000000003
 20
-7.0594000000000001
 30
0.0
 10
-60.2502
 20
-7.1441000000000008
 30
0.0
 10
-60.434800000000003
 20
-7.3122000000000007
 30
0.0
 10
-60.434800000000003
 20
-7.3122000000000007
 30
0.0
 10
-60.619300000000003
 20
-7.4816000000000003
 30
0.0
 10
-60.712200000000003
 20
-7.6850000000000005
 30
0.0
 10
-60.712200000000003
 20
-7.9237000000000002
 30
0.0
 10
-60.712200000000003
 20
-7.9237000000000002
 30
0.0
 10
-60.712200000000003
 20
-8.2000000000000011
 30
0.0
 10
-60.577000000000005
 20
-8.4564000000000004
 30
0.0
 10
-60.306600000000003
 20
-8.6928000000000001
 30
0.0
 10
-60.306600000000003
 20
-8.6928000000000001
 30
0.0
 10
-60.037400000000005
 20
-8.9291
 30
0.0
 10
-59.690600000000003
 20
-9.0479000000000003
 30
0.0
 10
-59.268600000000006
 20
-9.0479000000000003
 30
0.0
  0
SPLINE
  5
28
100
AcDbEntity
  8
Ebene 1
100
AcDbSpline
210
0.0
220
0.0
230
1.0
 70
     1
 71
     3
 72
   120
 73
   116
 74
     0
 42
0.0000000001
 43
0.0000000001
 40
0.0
 40
0.0
 40
0.0
 40
0.0
 40
0.0344827586206897
 40
0.0344827586206897
 40
0.0344827586206897
 40
0.0344827586206897
 40
0.0689655172413793
 40
0.0689655172413793
 40
0.0689655172413793
 40
0.0689655172413793
 40
0.103448275862069
 40
0.103448275862069
 40
0.103448275862069
 40
0.103448275862069
 40
0.1379310344827586
 40
0.1379310344827586
 40
0.1379310344827586
 40
0.1379310344827586
 40
0.1724137931034483
 40
0.1724137931034483
 40
0.1724137931034483
 40
0.1724137931034483
 40
0.206896551724138
 40
0.206896551724138
 40
0.206896551724138
 40
0.206896551724138
 40
0.2413793103448276
 40
0.2413793103448276
 40
0.2413793103448276
 40
0.2413793103448276
 40
0.2758620689655173
 40
0.2758620689655173
 40
0.2758620689655173
 40
0.2758620689655173
 40
0.310344827586207
 40
0.310344827586207
 40
0.310344827586207
 40
0.310344827586207
 40
0.3448275862068966
 40
0.3448275862068966
 40
0.3448275862068966
 40
0.3448275862068966
 40
0.3793103448275863
 40
0.3793103448275863
 40
0.3793103448275863
 40
0.3793103448275863
 40
0.413793103448276
 40
0.413793103448276
 40
0.413793103448276
 40
0.413793103448276
 40
0.4482758620689656
 40
0.4482758620689656
 40
0.4482758620689656
 40
0.4482758620689656
 40
0.4827586206896553
 40
0.4827586206896553
 40
0.4827586206896553
 40
0.4827586206896553
 40
0.517241379310345
 40
0.517241379310345
 40
0.517241379310345
 40
0.517241379310345
 40
0.5517241379310346
 40
0.5517241379310346
 40
0.5517241379310346
 40
0.5517241379310346
 40
0.5862068965517242
 40
0.5862068965517242
 40
0.5862068965517242
 40
0.5862068965517242
 40
0.6206896551724138
 40
0.6206896551724138
 40
0.6206896551724138
 40
0.6206896551724138
 40
0.6551724137931034
 40
0.6551724137931034
 40
0.6551724137931034
 40
0.6551724137931034
 40
0.689655172413793
 40
0.689655172413793
 40
0.689655172413793
 40
0.689655172413793
 40
0.7241379310344827
 40
0.7241379310344827
 40
0.7241379310344827
 40
0.7241379310344827
 40
0.7586206896551723
 40
0.7586206896551723
 40
0.7586206896551723
 40
0.7586206896551723
 40
0.7931034482758619
 40
0.7931034482758619
 40
0.7931034482758619
 40
0.7931034482758619
 40
0.8275862068965515
 40
0.8275862068965515
 40
0.8275862068965515
 40
0.8275862068965515
 40
0.8620689655172411
 40
0.8620689655172411
 40
0.8620689655172411
 40
0.8620689655172411
 40
0.8965517241379307
 40
0.8965517241379307
 40
0.8965517241379307
 40
0.8965517241379307
 40
0.9310344827586203
 40
0.9310344827586203
 40
0.9310344827586203
 40
0.9310344827586203
 40
0.9655172413793099
 40
0.9655172413793099
 40
0.9655172413793099
 40
0.9655172413793099
 40
1.0
 40
1.0
 40
1.0
 40
1.0
 10
-59.293200000000006
 20
-5.8329000000000004
 30
0.0
 10
-59.293200000000006
 20
-5.8329000000000004
 30
0.0
 10
-59.354400000000005
 20
-5.1991000000000005
 30
0.0
 10
-59.354400000000005
 20
-5.1991000000000005
 30
0.0
 10
-59.354400000000005
 20
-5.1991000000000005
 30
0.0
 10
-59.265000000000001
 20
-5.2038000000000002
 30
0.0
 10
-59.211000000000006
 20
-5.2061000000000002
 30
0.0
 10
-59.193400000000004
 20
-5.2061000000000002
 30
0.0
 10
-59.193400000000004
 20
-5.2061000000000002
 30
0.0
 10
-59.041700000000006
 20
-5.2061000000000002
 30
0.0
 10
-58.8889
 20
-5.1673
 30
0.0
 10
-58.734900000000003
 20
-5.0909000000000004
 30
0.0
 10
-58.734900000000003
 20
-5.0909000000000004
 30
0.0
 10
-58.580800000000004
 20
-5.0133000000000001
 30
0.0
 10
-58.463300000000004
 20
-4.9085999999999999
 30
0.0
 10
-58.382200000000005
 20
-4.7769000000000004
 30
0.0
 10
-58.382200000000005
 20
-4.7769000000000004
 30
0.0
 10
-58.299900000000001
 20
-4.6452
 30
0.0
 10
-58.259900000000002
 20
-4.5053000000000001
 30
0.0
 10
-58.259900000000002
 20
-4.3582999999999998
 30
0.0
 10
-58.259900000000002
 20
-4.3582999999999998
 30
0.0
 10
-58.259900000000002
 20
-4.1654
 30
0.0
 10
-58.325800000000001
 20
-3.9690000000000003
 30
0.0
 10
-58.459800000000001
 20
-3.7691000000000003
 30
0.0
 10
-58.459800000000001
 20
-3.7691000000000003
 30
0.0
 10
-58.592600000000004
 20
-3.5692000000000004
 30
0.0
 10
-58.7866
 20
-3.4081000000000001
 30
0.0
 10
-59.041700000000006
 20
-3.2835000000000001
 30
0.0
 10
-59.041700000000006
 20
-3.2835000000000001
 30
0.0
 10
-59.2956
 20
-3.1600000000000001
 30
0.0
 10
-59.548400000000001
 20
-3.0977000000000001
 30
0.0
 10
-59.7988
 20
-3.0977000000000001
 30
0.0
 10
-59.7988
 20
-3.0977000000000001
 30
0.0
 10
-60.0809
 20
-3.0977000000000001
 30
0.0
 10
-60.3078
 20
-3.1812
 30
0.0
 10
-60.4771
 20
-3.347
 30
0.0
 10
-60.4771
 20
-3.347
 30
0.0
 10
-60.647500000000001
 20
-3.5139
 30
0.0
 10
-60.732200000000006
 20
-3.7327000000000004
 30
0.0
 10
-60.732200000000006
 20
-4.0030999999999999
 30
0.0
 10
-60.732200000000006
 20
-4.0030999999999999
 30
0.0
 10
-60.732200000000006
 20
-4.1854000000000005
 30
0.0
 10
-60.688700000000004
 20
-4.3571
 30
0.0
 10
-60.601700000000001
 20
-4.5182000000000002
 30
0.0
 10
-60.601700000000001
 20
-4.5182000000000002
 30
0.0
 10
-60.514700000000005
 20
-4.6805000000000003
 30
0.0
 10
-60.383000000000003
 20
-4.8310000000000004
 30
0.0
 10
-60.209099999999999
 20
-4.9721000000000002
 30
0.0
 10
-60.209099999999999
 20
-4.9721000000000002
 30
0.0
 10
-60.209099999999999
 20
-4.9721000000000002
 30
0.0
 10
-60.246600000000001
 20
-5.5166000000000004
 30
0.0
 10
-60.246600000000001
 20
-5.5166000000000004
 30
0.0
 10
-60.246600000000001
 20
-5.5166000000000004
 30
0.0
 10
-60.246600000000001
 20
-5.5166000000000004
 30
0.0
 10
-62.829500000000003
 20
-4.7545999999999999
 30
0.0
 10
-62.829500000000003
 20
-4.7545999999999999
 30
0.0
 10
-62.829500000000003
 20
-4.7545999999999999
 30
0.0
 10
-62.829500000000003
 20
-4.7545999999999999
 30
0.0
 10
-62.829500000000003
 20
-2.2874000000000003
 30
0.0
 10
-62.829500000000003
 20
-2.2874000000000003
 30
0.0
 10
-62.829500000000003
 20
-2.2874000000000003
 30
0.0
 10
-62.829500000000003
 20
-2.2874000000000003
 30
0.0
 10
-62.258100000000006
 20
-2.4086000000000003
 30
0.0
 10
-62.258100000000006
 20
-2.4086000000000003
 30
0.0
 10
-62.258100000000006
 20
-2.4086000000000003
 30
0.0
 10
-62.258100000000006
 20
-2.4086000000000003
 30
0.0
 10
-62.258100000000006
 20
-4.3277000000000001
 30
0.0
 10
-62.258100000000006
 20
-4.3277000000000001
 30
0.0
 10
-62.258100000000006
 20
-4.3277000000000001
 30
0.0
 10
-62.258100000000006
 20
-4.3277000000000001
 30
0.0
 10
-60.973200000000006
 20
-4.7063000000000006
 30
0.0
 10
-60.973200000000006
 20
-4.7063000000000006
 30
0.0
 10
-60.973200000000006
 20
-4.7063000000000006
 30
0.0
 10
-61.076600000000006
 20
-4.5640999999999998
 30
0.0
 10
-61.154200000000003
 20
-4.4171000000000005
 30
0.0
 10
-61.206000000000003
 20
-4.2677000000000005
 30
0.0
 10
-61.206000000000003
 20
-4.2677000000000005
 30
0.0
 10
-61.257600000000004
 20
-4.1172000000000004
 30
0.0
 10
-61.283500000000004
 20
-3.9620000000000002
 30
0.0
 10
-61.283500000000004
 20
-3.8032000000000004
 30
0.0
 10
-61.283500000000004
 20
-3.8032000000000004
 30
0.0
 10
-61.283500000000004
 20
-3.4175
 30
0.0
 10
-61.156600000000005
 20
-3.1012
 30
0.0
 10
-60.901500000000006
 20
-2.8531
 30
0.0
 10
-60.901500000000006
 20
-2.8531
 30
0.0
 10
-60.646300000000004
 20
-2.6049000000000002
 30
0.0
 10
-60.297200000000004
 20
-2.4803000000000002
 30
0.0
 10
-59.854100000000003
 20
-2.4803000000000002
 30
0.0
 10
-59.854100000000003
 20
-2.4803000000000002
 30
0.0
 10
-59.466100000000004
 20
-2.4803000000000002
 30
0.0
 10
-59.108700000000006
 20
-2.5661
 30
0.0
 10
-58.780700000000003
 20
-2.7355
 30
0.0
 10
-58.780700000000003
 20
-2.7355
 30
0.0
 10
-58.453900000000004
 20
-2.9060000000000001
 30
0.0
 10
-58.202400000000004
 20
-3.1400000000000001
 30
0.0
 10
-58.027200000000001
 20
-3.4363000000000001
 30
0.0
 10
-58.027200000000001
 20
-3.4363000000000001
 30
0.0
 10
-57.850900000000003
 20
-3.7338
 30
0.0
 10
-57.7639
 20
-4.0548999999999999
 30
0.0
 10
-57.7639
 20
-4.3994
 30
0.0
 10
-57.7639
 20
-4.3994
 30
0.0
 10
-57.7639
 20
-4.6886999999999999
 30
0.0
 10
-57.828500000000005
 20
-4.9451000000000001
 30
0.0
 10
-57.960100000000004
 20
-5.1684999999999999
 30
0.0
 10
-57.960100000000004
 20
-5.1684999999999999
 30
0.0
 10
-58.090700000000005
 20
-5.3906999999999998
 30
0.0
 10
-58.270500000000006
 20
-5.5577000000000005
 30
0.0
 10
-58.501000000000005
 20
-5.6694000000000004
 30
0.0
 10
-58.501000000000005
 20
-5.6694000000000004
 30
0.0
 10
-58.730200000000004
 20
-5.7811000000000003
 30
0.0
 10
-58.959400000000002
 20
-5.8364000000000003
 30
0.0
 10
-59.189900000000002
 20
-5.8364000000000003
 30
0.0
 10
-59.189900000000002
 20
-5.8364000000000003
 30
0.0
 10
-59.212200000000003
 20
-5.8364000000000003
 30
0.0
 10
-59.246200000000002
 20
-5.8352000000000004
 30
0.0
 10
-59.293200000000006
 20
-5.8329000000000004
 30
0.0
  0
SPLINE
  5
29
100
AcDbEntity
  8
Ebene 1
370
    15
100
AcDbSpline
210
0.0
220
0.0
230
1.0
 70
     1
 71
     3
 72
   224
 73
   220
 74
     0
 42
0.0000000001
 43
0.0000000001
 40
0.0
 40
0.0
 40
0.0
 40
0.0
 40
0.0181818181818182
 40
0.0181818181818182
 40
0.0181818181818182
 40
0.0181818181818182
 40
0.0363636363636364
 40
0.0363636363636364
 40
0.0363636363636364
 40
0.0363636363636364
 40
0.0545454545454545
 40
0.0545454545454545
 40
0.0545454545454545
 40
0.0545454545454545
 40
0.0727272727272727
 40
0.0727272727272727
 40
0.0727272727272727
 40
0.0727272727272727
 40
0.0909090909090909
 40
0.0909090909090909
 40
0.0909090909090909
 40
0.0909090909090909
 40
0.1090909090909091
 40
0.1090909090909091
 40
0.1090909090909091
 40
0.1090909090909091
 40
0.1272727272727273
 40
0.1272727272727273
 40
0.1272727272727273
 40
0.1272727272727273
 40
0.1454545454545455
 40
0.1454545454545455
 40
0.1454545454545455
 40
0.1454545454545455
 40
0.1636363636363637
 40
0.1636363636363637
 40
0.1636363636363637
 40
0.1636363636363637
 40
0.1818181818181819
 40
0.1818181818181819
 40
0.1818181818181819
 40
0.1818181818181819
 40
0.2
 40
0.2
 40
0.2
 40
0.2
 40
0.2181818181818182
 40
0.2181818181818182
 40
0.2181818181818182
 40
0.2181818181818182
 40
0.2363636363636364
 40
0.2363636363636364
 40
0.2363636363636364
 40
0.2363636363636364
 40
0.2545454545454546
 40
0.2545454545454546
 40
0.2545454545454546
 40
0.2545454545454546
 40
0.2727272727272728
 40
0.2727272727272728
 40
0.2727272727272728
 40
0.2727272727272728
 40
0.290909090909091
 40
0.290909090909091
 40
0.290909090909091
 40
0.290909090909091
 40
0.3090909090909091
 40
0.3090909090909091
 40
0.3090909090909091
 40
0.3090909090909091
 40
0.3272727272727273
 40
0.3272727272727273
 40
0.3272727272727273
 40
0.3272727272727273
 40
0.3454545454545455
 40
0.3454545454545455
 40
0.3454545454545455
 40
0.3454545454545455
 40
0.3636363636363637
 40
0.3636363636363637
 40
0.3636363636363637
 40
0.3636363636363637
 40
0.3818181818181819
 40
0.3818181818181819
 40
0.3818181818181819
 40
0.3818181818181819
 40
0.4000000000000001
 40
0.4000000000000001
 40
0.4000000000000001
 40
0.4000000000000001
 40
0.4181818181818183
 40
0.4181818181818183
 40
0.4181818181818183
 40
0.4181818181818183
 40
0.4363636363636365
 40
0.4363636363636365
 40
0.4363636363636365
 40
0.4363636363636365
 40
0.4545454545454546
 40
0.4545454545454546
 40
0.4545454545454546
 40
0.4545454545454546
 40
0.4727272727272728
 40
0.4727272727272728
 40
0.4727272727272728
 40
0.4727272727272728
 40
0.490909090909091
 40
0.490909090909091
 40
0.490909090909091
 40
0.490909090909091
 40
0.5090909090909092
 40
0.5090909090909092
 40
0.5090909090909092
 40
0.5090909090909092
 40
0.5272727272727273
 40
0.5272727272727273
 40
0.5272727272727273
 40
0.5272727272727273
 40
0.5454545454545455
 40
0.5454545454545455
 40
0.5454545454545455
 40
0.5454545454545455
 40
0.5636363636363637
 40
0.5636363636363637
 40
0.5636363636363637
 40
0.5636363636363637
 40
0.5818181818181819
 40
0.5818181818181819
 40
0.5818181818181819
 40
0.5818181818181819
 40
0.6000000000000001
 40
0.6000000000000001
 40
0.6000000000000001
 40
0.6000000000000001
 40
0.6181818181818183
 40
0.6181818181818183
 40
0.6181818181818183
 40
0.6181818181818183
 40
0.6363636363636365
 40
0.6363636363636365
 40
0.6363636363636365
 40
0.6363636363636365
 40
0.6545454545454547
 40
0.6545454545454547
 40
0.6545454545454547
 40
0.6545454545454547
 40
0.6727272727272728
 40
0.6727272727272728
 40
0.6727272727272728
 40
0.6727272727272728
 40
0.690909090909091
 40
0.690909090909091
 40
0.690909090909091
 40
0.690909090909091
 40
0.7090909090909092
 40
0.7090909090909092
 40
0.7090909090909092
 40
0.7090909090909092
 40
0.7272727272727274
 40
0.7272727272727274
 40
0.7272727272727274
 40
0.7272727272727274
 40
0.7454545454545456
 40
0.7454545454545456
 40
0.7454545454545456
 40
0.7454545454545456
 40
0.7636363636363638
 40
0.7636363636363638
 40
0.7636363636363638
 40
0.7636363636363638
 40
0.781818181818182
 40
0.781818181818182
 40
0.781818181818182
 40
0.781818181818182
 40
0.8000000000000002
 40
0.8000000000000002
 40
0.8000000000000002
 40
0.8000000000000002
 40
0.8181818181818183
 40
0.8181818181818183
 40
0.8181818181818183
 40
0.8181818181818183
 40
0.8363636363636365
 40
0.8363636363636365
 40
0.8363636363636365
 40
0.8363636363636365
 40
0.8545454545454547
 40
0.8545454545454547
 40
0.8545454545454547
 40
0.8545454545454547
 40
0.8727272727272729
 40
0.8727272727272729
 40
0.8727272727272729
 40
0.8727272727272729
 40
0.8909090909090911
 40
0.8909090909090911
 40
0.8909090909090911
 40
0.8909090909090911
 40
0.9090909090909093
 40
0.9090909090909093
 40
0.9090909090909093
 40
0.9090909090909093
 40
0.9272727272727275
 40
0.9272727272727275
 40
0.9272727272727275
 40
0.9272727272727275
 40
0.9454545454545457
 40
0.9454545454545457
 40
0.9454545454545457
 40
0.9454545454545457
 40
0.9636363636363639
 40
0.9636363636363639
 40
0.9636363636363639
 40
0.9636363636363639
 40
0.981818181818182
 40
0.981818181818182
 40
0.981818181818182
 40
0.981818181818182
 40
1.0
 40
1.0
 40
1.0
 40
1.0
 10
9.3351000000000006
 20
-53.377400000000002
 30
0.0
 10
9.3351000000000006
 20
-53.377400000000002
 30
0.0
 10
9.3247999999999998
 20
-53.200000000000003
 30
0.0
 10
9.3247999999999998
 20
-53.200000000000003
 30
0.0
 10
9.3247999999999998
 20
-53.200000000000003
 30
0.0
 10
9.3247999999999998
 20
-53.200000000000003
 30
0.0
 10
9.2945000000000011
 20
-53.025000000000006
 30
0.0
 10
9.2945000000000011
 20
-53.025000000000006
 30
0.0
 10
9.2945000000000011
 20
-53.025000000000006
 30
0.0
 10
9.2945000000000011
 20
-53.025000000000006
 30
0.0
 10
9.2447999999999997
 20
-52.854600000000005
 30
0.0
 10
9.2447999999999997
 20
-52.854600000000005
 30
0.0
 10
9.2447999999999997
 20
-52.854600000000005
 30
0.0
 10
9.2447999999999997
 20
-52.854600000000005
 30
0.0
 10
9.1756000000000011
 20
-52.690899999999999
 30
0.0
 10
9.1756000000000011
 20
-52.690899999999999
 30
0.0
 10
9.1756000000000011
 20
-52.690899999999999
 30
0.0
 10
9.1756000000000011
 20
-52.690899999999999
 30
0.0
 10
9.0881000000000007
 20
-52.5364
 30
0.0
 10
9.0881000000000007
 20
-52.5364
 30
0.0
 10
9.0881000000000007
 20
-52.5364
 30
0.0
 10
9.0881000000000007
 20
-52.5364
 30
0.0
 10
8.9837000000000007
 20
-52.392500000000005
 30
0.0
 10
8.9837000000000007
 20
-52.392500000000005
 30
0.0
 10
8.9837000000000007
 20
-52.392500000000005
 30
0.0
 10
8.9837000000000007
 20
-52.392500000000005
 30
0.0
 10
8.8638000000000012
 20
-52.261600000000001
 30
0.0
 10
8.8638000000000012
 20
-52.261600000000001
 30
0.0
 10
8.8638000000000012
 20
-52.261600000000001
 30
0.0
 10
8.8638000000000012
 20
-52.261600000000001
 30
0.0
 10
8.7293000000000003
 20
-52.145200000000003
 30
0.0
 10
8.7293000000000003
 20
-52.145200000000003
 30
0.0
 10
8.7293000000000003
 20
-52.145200000000003
 30
0.0
 10
8.7293000000000003
 20
-52.145200000000003
 30
0.0
 10
8.5826000000000011
 20
-52.045000000000002
 30
0.0
 10
8.5826000000000011
 20
-52.045000000000002
 30
0.0
 10
8.5826000000000011
 20
-52.045000000000002
 30
0.0
 10
8.5826000000000011
 20
-52.045000000000002
 30
0.0
 10
8.4256000000000011
 20
-51.9621
 30
0.0
 10
8.4256000000000011
 20
-51.9621
 30
0.0
 10
8.4256000000000011
 20
-51.9621
 30
0.0
 10
8.4256000000000011
 20
-51.9621
 30
0.0
 10
8.2602000000000011
 20
-51.8979
 30
0.0
 10
8.2602000000000011
 20
-51.8979
 30
0.0
 10
8.2602000000000011
 20
-51.8979
 30
0.0
 10
8.2602000000000011
 20
-51.8979
 30
0.0
 10
8.0884
 20
-51.852700000000006
 30
0.0
 10
8.0884
 20
-51.852700000000006
 30
0.0
 10
8.0884
 20
-51.852700000000006
 30
0.0
 10
8.0884
 20
-51.852700000000006
 30
0.0
 10
7.9123000000000001
 20
-51.827300000000001
 30
0.0
 10
7.9123000000000001
 20
-51.827300000000001
 30
0.0
 10
7.9123000000000001
 20
-51.827300000000001
 30
0.0
 10
7.9123000000000001
 20
-51.827300000000001
 30
0.0
 10
7.7349000000000006
 20
-51.822400000000002
 30
0.0
 10
7.7349000000000006
 20
-51.822400000000002
 30
0.0
 10
7.7349000000000006
 20
-51.822400000000002
 30
0.0
 10
7.7349000000000006
 20
-51.822400000000002
 30
0.0
 10
7.5578000000000003
 20
-51.837600000000002
 30
0.0
 10
7.5578000000000003
 20
-51.837600000000002
 30
0.0
 10
7.5578000000000003
 20
-51.837600000000002
 30
0.0
 10
7.5578000000000003
 20
-51.837600000000002
 30
0.0
 10
7.3839000000000006
 20
-51.872800000000005
 30
0.0
 10
7.3839000000000006
 20
-51.872800000000005
 30
0.0
 10
7.3839000000000006
 20
-51.872800000000005
 30
0.0
 10
7.3839000000000006
 20
-51.872800000000005
 30
0.0
 10
7.2149000000000001
 20
-51.927500000000002
 30
0.0
 10
7.2149000000000001
 20
-51.927500000000002
 30
0.0
 10
7.2149000000000001
 20
-51.927500000000002
 30
0.0
 10
7.2149000000000001
 20
-51.927500000000002
 30
0.0
 10
7.0533000000000001
 20
-52.001300000000001
 30
0.0
 10
7.0533000000000001
 20
-52.001300000000001
 30
0.0
 10
7.0533000000000001
 20
-52.001300000000001
 30
0.0
 10
7.0533000000000001
 20
-52.001300000000001
 30
0.0
 10
6.9013
 20
-52.093000000000004
 30
0.0
 10
6.9013
 20
-52.093000000000004
 30
0.0
 10
6.9013
 20
-52.093000000000004
 30
0.0
 10
6.9013
 20
-52.093000000000004
 30
0.0
 10
6.7605000000000004
 20
-52.201599999999999
 30
0.0
 10
6.7605000000000004
 20
-52.201599999999999
 30
0.0
 10
6.7605000000000004
 20
-52.201599999999999
 30
0.0
 10
6.7605000000000004
 20
-52.201599999999999
 30
0.0
 10
6.6331000000000007
 20
-52.325500000000005
 30
0.0
 10
6.6331000000000007
 20
-52.325500000000005
 30
0.0
 10
6.6331000000000007
 20
-52.325500000000005
 30
0.0
 10
6.6331000000000007
 20
-52.325500000000005
 30
0.0
 10
6.5206
 20
-52.463000000000001
 30
0.0
 10
6.5206
 20
-52.463000000000001
 30
0.0
 10
6.5206
 20
-52.463000000000001
 30
0.0
 10
6.5206
 20
-52.463000000000001
 30
0.0
 10
6.4247000000000005
 20
-52.612300000000005
 30
0.0
 10
6.4247000000000005
 20
-52.612300000000005
 30
0.0
 10
6.4247000000000005
 20
-52.612300000000005
 30
0.0
 10
6.4247000000000005
 20
-52.612300000000005
 30
0.0
 10
6.3463000000000003
 20
-52.771700000000003
 30
0.0
 10
6.3463000000000003
 20
-52.771700000000003
 30
0.0
 10
6.3463000000000003
 20
-52.771700000000003
 30
0.0
 10
6.3463000000000003
 20
-52.771700000000003
 30
0.0
 10
6.2867000000000006
 20
-52.938900000000004
 30
0.0
 10
6.2867000000000006
 20
-52.938900000000004
 30
0.0
 10
6.2867000000000006
 20
-52.938900000000004
 30
0.0
 10
6.2867000000000006
 20
-52.938900000000004
 30
0.0
 10
6.2465000000000002
 20
-53.112200000000001
 30
0.0
 10
6.2465000000000002
 20
-53.112200000000001
 30
0.0
 10
6.2465000000000002
 20
-53.112200000000001
 30
0.0
 10
6.2465000000000002
 20
-53.112200000000001
 30
0.0
 10
6.226
 20
-53.288499999999999
 30
0.0
 10
6.226
 20
-53.288499999999999
 30
0.0
 10
6.226
 20
-53.288499999999999
 30
0.0
 10
6.226
 20
-53.288499999999999
 30
0.0
 10
6.226
 20
-53.466300000000004
 30
0.0
 10
6.226
 20
-53.466300000000004
 30
0.0
 10
6.226
 20
-53.466300000000004
 30
0.0
 10
6.226
 20
-53.466300000000004
 30
0.0
 10
6.2465000000000002
 20
-53.642700000000005
 30
0.0
 10
6.2465000000000002
 20
-53.642700000000005
 30
0.0
 10
6.2465000000000002
 20
-53.642700000000005
 30
0.0
 10
6.2465000000000002
 20
-53.642700000000005
 30
0.0
 10
6.2867000000000006
 20
-53.815600000000003
 30
0.0
 10
6.2867000000000006
 20
-53.815600000000003
 30
0.0
 10
6.2867000000000006
 20
-53.815600000000003
 30
0.0
 10
6.2867000000000006
 20
-53.815600000000003
 30
0.0
 10
6.3463000000000003
 20
-53.982800000000005
 30
0.0
 10
6.3463000000000003
 20
-53.982800000000005
 30
0.0
 10
6.3463000000000003
 20
-53.982800000000005
 30
0.0
 10
6.3463000000000003
 20
-53.982800000000005
 30
0.0
 10
6.4247000000000005
 20
-54.142300000000006
 30
0.0
 10
6.4247000000000005
 20
-54.142300000000006
 30
0.0
 10
6.4247000000000005
 20
-54.142300000000006
 30
0.0
 10
6.4247000000000005
 20
-54.142300000000006
 30
0.0
 10
6.5206
 20
-54.291800000000002
 30
0.0
 10
6.5206
 20
-54.291800000000002
 30
0.0
 10
6.5206
 20
-54.291800000000002
 30
0.0
 10
6.5206
 20
-54.291800000000002
 30
0.0
 10
6.6331000000000007
 20
-54.429400000000001
 30
0.0
 10
6.6331000000000007
 20
-54.429400000000001
 30
0.0
 10
6.6331000000000007
 20
-54.429400000000001
 30
0.0
 10
6.6331000000000007
 20
-54.429400000000001
 30
0.0
 10
6.7605000000000004
 20
-54.5533
 30
0.0
 10
6.7605000000000004
 20
-54.5533
 30
0.0
 10
6.7605000000000004
 20
-54.5533
 30
0.0
 10
6.7605000000000004
 20
-54.5533
 30
0.0
 10
6.9013
 20
-54.6616
 30
0.0
 10
6.9013
 20
-54.6616
 30
0.0
 10
6.9013
 20
-54.6616
 30
0.0
 10
6.9013
 20
-54.6616
 30
0.0
 10
7.0533000000000001
 20
-54.753300000000003
 30
0.0
 10
7.0533000000000001
 20
-54.753300000000003
 30
0.0
 10
7.0533000000000001
 20
-54.753300000000003
 30
0.0
 10
7.0533000000000001
 20
-54.753300000000003
 30
0.0
 10
7.2149000000000001
 20
-54.827000000000005
 30
0.0
 10
7.2149000000000001
 20
-54.827000000000005
 30
0.0
 10
7.2149000000000001
 20
-54.827000000000005
 30
0.0
 10
7.2149000000000001
 20
-54.827000000000005
 30
0.0
 10
7.3839000000000006
 20
-54.882000000000005
 30
0.0
 10
7.3839000000000006
 20
-54.882000000000005
 30
0.0
 10
7.3839000000000006
 20
-54.882000000000005
 30
0.0
 10
7.3839000000000006
 20
-54.882000000000005
 30
0.0
 10
7.5578000000000003
 20
-54.917300000000004
 30
0.0
 10
7.5578000000000003
 20
-54.917300000000004
 30
0.0
 10
7.5578000000000003
 20
-54.917300000000004
 30
0.0
 10
7.5578000000000003
 20
-54.917300000000004
 30
0.0
 10
7.7349000000000006
 20
-54.932500000000005
 30
0.0
 10
7.7349000000000006
 20
-54.932500000000005
 30
0.0
 10
7.7349000000000006
 20
-54.932500000000005
 30
0.0
 10
7.7349000000000006
 20
-54.932500000000005
 30
0.0
 10
7.9123000000000001
 20
-54.927600000000005
 30
0.0
 10
7.9123000000000001
 20
-54.927600000000005
 30
0.0
 10
7.9123000000000001
 20
-54.927600000000005
 30
0.0
 10
7.9123000000000001
 20
-54.927600000000005
 30
0.0
 10
8.0884
 20
-54.902200000000001
 30
0.0
 10
8.0884
 20
-54.902200000000001
 30
0.0
 10
8.0884
 20
-54.902200000000001
 30
0.0
 10
8.0884
 20
-54.902200000000001
 30
0.0
 10
8.2602000000000011
 20
-54.856999999999999
 30
0.0
 10
8.2602000000000011
 20
-54.856999999999999
 30
0.0
 10
8.2602000000000011
 20
-54.856999999999999
 30
0.0
 10
8.2602000000000011
 20
-54.856999999999999
 30
0.0
 10
8.4256000000000011
 20
-54.792400000000001
 30
0.0
 10
8.4256000000000011
 20
-54.792400000000001
 30
0.0
 10
8.4256000000000011
 20
-54.792400000000001
 30
0.0
 10
8.4256000000000011
 20
-54.792400000000001
 30
0.0
 10
8.5826000000000011
 20
-54.709500000000006
 30
0.0
 10
8.5826000000000011
 20
-54.709500000000006
 30
0.0
 10
8.5826000000000011
 20
-54.709500000000006
 30
0.0
 10
8.5826000000000011
 20
-54.709500000000006
 30
0.0
 10
8.7293000000000003
 20
-54.609300000000005
 30
0.0
 10
8.7293000000000003
 20
-54.609300000000005
 30
0.0
 10
8.7293000000000003
 20
-54.609300000000005
 30
0.0
 10
8.7293000000000003
 20
-54.609300000000005
 30
0.0
 10
8.8638000000000012
 20
-54.492900000000006
 30
0.0
 10
8.8638000000000012
 20
-54.492900000000006
 30
0.0
 10
8.8638000000000012
 20
-54.492900000000006
 30
0.0
 10
8.8638000000000012
 20
-54.492900000000006
 30
0.0
 10
8.9837000000000007
 20
-54.362000000000002
 30
0.0
 10
8.9837000000000007
 20
-54.362000000000002
 30
0.0
 10
8.9837000000000007
 20
-54.362000000000002
 30
0.0
 10
8.9837000000000007
 20
-54.362000000000002
 30
0.0
 10
9.0881000000000007
 20
-54.218500000000006
 30
0.0
 10
9.0881000000000007
 20
-54.218500000000006
 30
0.0
 10
9.0881000000000007
 20
-54.218500000000006
 30
0.0
 10
9.0881000000000007
 20
-54.218500000000006
 30
0.0
 10
9.1756000000000011
 20
-54.064
 30
0.0
 10
9.1756000000000011
 20
-54.064
 30
0.0
 10
9.1756000000000011
 20
-54.064
 30
0.0
 10
9.1756000000000011
 20
-54.064
 30
0.0
 10
9.2447999999999997
 20
-53.900300000000001
 30
0.0
 10
9.2447999999999997
 20
-53.900300000000001
 30
0.0
 10
9.2447999999999997
 20
-53.900300000000001
 30
0.0
 10
9.2447999999999997
 20
-53.900300000000001
 30
0.0
 10
9.2945000000000011
 20
-53.729900000000001
 30
0.0
 10
9.2945000000000011
 20
-53.729900000000001
 30
0.0
 10
9.2945000000000011
 20
-53.729900000000001
 30
0.0
 10
9.2945000000000011
 20
-53.729900000000001
 30
0.0
 10
9.3247999999999998
 20
-53.554500000000004
 30
0.0
 10
9.3247999999999998
 20
-53.554500000000004
 30
0.0
 10
9.3247999999999998
 20
-53.554500000000004
 30
0.0
 10
9.3247999999999998
 20
-53.554500000000004
 30
0.0
 10
9.3351000000000006
 20
-53.377400000000002
 30
0.0
 10
9.3351000000000006
 20
-53.377400000000002
 30
0.0
  0
SPLINE
  5
2A
100
AcDbEntity
  8
Ebene 1
370
    15
100
AcDbSpline
210
0.0
220
0.0
230
1.0
 70
     0
 71
     3
 72
     8
 73
     4
 74
     0
 42
0.0000000001
 43
0.0000000001
 40
0.0
 40
0.0
 40
0.0
 40
0.0
 40
1.0
 40
1.0
 40
1.0
 40
1.0
 10
6.8903000000000008
 20
-55.599900000000005
 30
0.0
 10
6.8903000000000008
 20
-55.599900000000005
 30
0.0
 10
8.6683000000000003
 20
-51.154900000000005
 30
0.0
 10
8.6683000000000003
 20
-51.154900000000005
 30
0.0
  0
SPLINE
  5
2B
100
AcDbEntity
  8
Ebene 1
100
AcDbSpline
210
0.0
220
0.0
230
1.0
 70
     1
 71
     3
 72
    44
 73
    40
 74
     0
 42
0.0000000001
 43
0.0000000001
 40
0.0
 40
0.0
 40
0.0
 40
0.0
 40
0.1
 40
0.1
 40
0.1
 40
0.1
 40
0.2
 40
0.2
 40
0.2
 40
0.2
 40
0.3
 40
0.3
 40
0.3
 40
0.3
 40
0.4
 40
0.4
 40
0.4
 40
0.4
 40
0.5
 40
0.5
 40
0.5
 40
0.5
 40
0.6
 40
0.6
 40
0.6
 40
0.6
 40
0.7
 40
0.7
 40
0.7
 40
0.7
 40
0.7999999999999999
 40
0.7999999999999999
 40
0.7999999999999999
 40
0.7999999999999999
 40
0.8999999999999999
 40
0.8999999999999999
 40
0.8999999999999999
 40
0.8999999999999999
 40
1.0
 40
1.0
 40
1.0
 40
1.0
 10
11.2966
 20
-55.107500000000002
 30
0.0
 10
11.351800000000001
 20
-54.767700000000005
 30
0.0
 10
11.4694
 20
-54.358400000000003
 30
0.0
 10
11.648200000000001
 20
-53.881
 30
0.0
 10
11.648200000000001
 20
-53.881
 30
0.0
 10
11.862200000000001
 20
-53.3048
 30
0.0
 10
12.142100000000001
 20
-52.732100000000003
 30
0.0
 10
12.489000000000001
 20
-52.164100000000005
 30
0.0
 10
12.489000000000001
 20
-52.164100000000005
 30
0.0
 10
12.835900000000001
 20
-51.595000000000006
 30
0.0
 10
13.2216
 20
-51.106999999999999
 30
0.0
 10
13.646100000000001
 20
-50.697700000000005
 30
0.0
 10
13.646100000000001
 20
-50.697700000000005
 30
0.0
 10
13.646100000000001
 20
-50.697700000000005
 30
0.0
 10
11.128400000000001
 20
-50.697700000000005
 30
0.0
 10
11.128400000000001
 20
-50.697700000000005
 30
0.0
 10
11.128400000000001
 20
-50.697700000000005
 30
0.0
 10
11.128400000000001
 20
-50.697700000000005
 30
0.0
 10
11.2483
 20
-50.126200000000004
 30
0.0
 10
11.2483
 20
-50.126200000000004
 30
0.0
 10
11.2483
 20
-50.126200000000004
 30
0.0
 10
11.2483
 20
-50.126200000000004
 30
0.0
 10
14.472800000000001
 20
-50.126200000000004
 30
0.0
 10
14.472800000000001
 20
-50.126200000000004
 30
0.0
 10
14.472800000000001
 20
-50.126200000000004
 30
0.0
 10
14.472800000000001
 20
-50.126200000000004
 30
0.0
 10
14.356300000000001
 20
-50.697700000000005
 30
0.0
 10
14.356300000000001
 20
-50.697700000000005
 30
0.0
 10
14.356300000000001
 20
-50.697700000000005
 30
0.0
 10
13.8095
 20
-51.177500000000002
 30
0.0
 10
13.332100000000001
 20
-51.797200000000004
 30
0.0
 10
12.9229
 20
-52.554500000000004
 30
0.0
 10
12.9229
 20
-52.554500000000004
 30
0.0
 10
12.447800000000001
 20
-53.429400000000001
 30
0.0
 10
12.122100000000001
 20
-54.280799999999999
 30
0.0
 10
11.948
 20
-55.107500000000002
 30
0.0
 10
11.948
 20
-55.107500000000002
 30
0.0
 10
11.948
 20
-55.107500000000002
 30
0.0
 10
11.2966
 20
-55.107500000000002
 30
0.0
 10
11.2966
 20
-55.107500000000002
 30
0.0
  0
SPLINE
  5
2C
100
AcDbEntity
  8
Ebene 1
100
AcDbSpline
210
0.0
220
0.0
230
1.0
 70
     1
 71
     3
 72
    44
 73
    40
 74
     0
 42
0.0000000001
 43
0.0000000001
 40
0.0
 40
0.0
 40
0.0
 40
0.0
 40
0.1
 40
0.1
 40
0.1
 40
0.1
 40
0.2
 40
0.2
 40
0.2
 40
0.2
 40
0.3
 40
0.3
 40
0.3
 40
0.3
 40
0.4
 40
0.4
 40
0.4
 40
0.4
 40
0.5
 40
0.5
 40
0.5
 40
0.5
 40
0.6
 40
0.6
 40
0.6
 40
0.6
 40
0.7
 40
0.7
 40
0.7
 40
0.7
 40
0.7999999999999999
 40
0.7999999999999999
 40
0.7999999999999999
 40
0.7999999999999999
 40
0.8999999999999999
 40
0.8999999999999999
 40
0.8999999999999999
 40
0.8999999999999999
 40
1.0
 40
1.0
 40
1.0
 40
1.0
 10
15.220700000000001
 20
-55.107500000000002
 30
0.0
 10
15.2759
 20
-54.767700000000005
 30
0.0
 10
15.393500000000001
 20
-54.358400000000003
 30
0.0
 10
15.5723
 20
-53.881
 30
0.0
 10
15.5723
 20
-53.881
 30
0.0
 10
15.786300000000001
 20
-53.3048
 30
0.0
 10
16.066200000000002
 20
-52.732100000000003
 30
0.0
 10
16.4131
 20
-52.164100000000005
 30
0.0
 10
16.4131
 20
-52.164100000000005
 30
0.0
 10
16.760000000000002
 20
-51.595000000000006
 30
0.0
 10
17.145700000000001
 20
-51.106999999999999
 30
0.0
 10
17.5702
 20
-50.697700000000005
 30
0.0
 10
17.5702
 20
-50.697700000000005
 30
0.0
 10
17.5702
 20
-50.697700000000005
 30
0.0
 10
15.0525
 20
-50.697700000000005
 30
0.0
 10
15.0525
 20
-50.697700000000005
 30
0.0
 10
15.0525
 20
-50.697700000000005
 30
0.0
 10
15.0525
 20
-50.697700000000005
 30
0.0
 10
15.172400000000001
 20
-50.126200000000004
 30
0.0
 10
15.172400000000001
 20
-50.126200000000004
 30
0.0
 10
15.172400000000001
 20
-50.126200000000004
 30
0.0
 10
15.172400000000001
 20
-50.126200000000004
 30
0.0
 10
18.396900000000002
 20
-50.126200000000004
 30
0.0
 10
18.396900000000002
 20
-50.126200000000004
 30
0.0
 10
18.396900000000002
 20
-50.126200000000004
 30
0.0
 10
18.396900000000002
 20
-50.126200000000004
 30
0.0
 10
18.2804
 20
-50.697700000000005
 30
0.0
 10
18.2804
 20
-50.697700000000005
 30
0.0
 10
18.2804
 20
-50.697700000000005
 30
0.0
 10
17.733599999999999
 20
-51.177500000000002
 30
0.0
 10
17.2562
 20
-51.797200000000004
 30
0.0
 10
16.847000000000001
 20
-52.554500000000004
 30
0.0
 10
16.847000000000001
 20
-52.554500000000004
 30
0.0
 10
16.3719
 20
-53.429400000000001
 30
0.0
 10
16.046200000000002
 20
-54.280799999999999
 30
0.0
 10
15.872100000000001
 20
-55.107500000000002
 30
0.0
 10
15.872100000000001
 20
-55.107500000000002
 30
0.0
 10
15.872100000000001
 20
-55.107500000000002
 30
0.0
 10
15.220700000000001
 20
-55.107500000000002
 30
0.0
 10
15.220700000000001
 20
-55.107500000000002
 30
0.0
  0
SPLINE
  5
2D
100
AcDbEntity
  8
Ebene 1
370
    15
  6
New Line1
100
AcDbSpline
210
0.0
220
0.0
230
1.0
 70
     0
 71
     3
 72
     8
 73
     4
 74
     0
 42
0.0000000001
 43
0.0000000001
 40
0.0
 40
0.0
 40
0.0
 40
0.0
 40
1.0
 40
1.0
 40
1.0
 40
1.0
 10
9.8311000000000011
 20
36.941400000000002
 30
0.0
 10
9.8311000000000011
 20
36.941400000000002
 30
0.0
 10
9.8311000000000011
 20
-42.446300000000001
 30
0.0
 10
9.8311000000000011
 20
-42.446300000000001
 30
0.0
  0
SPLINE
  5
2F
100
AcDbEntity
  8
Ebene 1
370
    15
100
AcDbSpline
210
0.0
220
0.0
230
1.0
 70
     1
 71
     3
 72
    16
 73
    12
 74
     0
 42
0.0000000001
 43
0.0000000001
 40
0.0
 40
0.0
 40
0.0
 40
0.0
 40
0.3333333333333333
 40
0.3333333333333333
 40
0.3333333333333333
 40
0.3333333333333333
 40
0.6666666666666666
 40
0.6666666666666666
 40
0.6666666666666666
 40
0.6666666666666666
 40
1.0
 40
1.0
 40
1.0
 40
1.0
 10
48.331099999999999
 20
-56.1556
 30
0.0
 10
48.331099999999999
 20
-56.1556
 30
0.0
 10
42.331099999999999
 20
-57.055500000000002
 30
0.0
 10
42.331099999999999
 20
-57.055500000000002
 30
0.0
 10
42.331099999999999
 20
-57.055500000000002
 30
0.0
 10
42.331099999999999
 20
-57.055500000000002
 30
0.0
 10
42.331099999999999
 20
-55.255600000000001
 30
0.0
 10
42.331099999999999
 20
-55.255600000000001
 30
0.0
 10
42.331099999999999
 20
-55.255600000000001
 30
0.0
 10
42.331099999999999
 20
-55.255600000000001
 30
0.0
 10
48.331099999999999
 20
-56.1556
 30
0.0
 10
48.331099999999999
 20
-56.1556
 30
0.0
  0
SPLINE
  5
30
100
AcDbEntity
  8
Ebene 1
370
    15
100
AcDbSpline
210
0.0
220
0.0
230
1.0
 70
     1
 71
     3
 72
    16
 73
    12
 74
     0
 42
0.0000000001
 43
0.0000000001
 40
0.0
 40
0.0
 40
0.0
 40
0.0
 40
0.3333333333333333
 40
0.3333333333333333
 40
0.3333333333333333
 40
0.3333333333333333
 40
0.6666666666666666
 40
0.6666666666666666
 40
0.6666666666666666
 40
0.6666666666666666
 40
1.0
 40
1.0
 40
1.0
 40
1.0
 10
-28.669
 20
-56.1556
 30
0.0
 10
-28.669
 20
-56.1556
 30
0.0
 10
-22.668900000000001
 20
-55.255600000000001
 30
0.0
 10
-22.668900000000001
 20
-55.255600000000001
 30
0.0
 10
-22.668900000000001
 20
-55.255600000000001
 30
0.0
 10
-22.668900000000001
 20
-55.255600000000001
 30
0.0
 10
-22.668900000000001
 20
-57.055500000000002
 30
0.0
 10
-22.668900000000001
 20
-57.055500000000002
 30
0.0
 10
-22.668900000000001
 20
-57.055500000000002
 30
0.0
 10
-22.668900000000001
 20
-57.055500000000002
 30
0.0
 10
-28.669
 20
-56.1556
 30
0.0
 10
-28.669
 20
-56.1556
 30
0.0
  0
SPLINE
  5
31
100
AcDbEntity
  8
Ebene 1
370
    15
100
AcDbSpline
210
0.0
220
0.0
230
1.0
 70
     0
 71
     3
 72
     8
 73
     4
 74
     0
 42
0.0000000001
 43
0.0000000001
 40
0.0
 40
0.0
 40
0.0
 40
0.0
 40
1.0
 40
1.0
 40
1.0
 40
1.0
 10
-28.669
 20
-56.1556
 30
0.0
 10
-28.669
 20
-56.1556
 30
0.0
 10
48.331099999999999
 20
-56.1556
 30
0.0
 10
48.331099999999999
 20
-56.1556
 30
0.0
  0
SPLINE
  5
32
100
AcDbEntity
  8
Ebene 1
370
    15
100
AcDbSpline
210
0.0
220
0.0
230
1.0
 70
     0
 71
     3
 72
     8
 73
     4
 74
     0
 42
0.0000000001
 43
0.0000000001
 40
0.0
 40
0.0
 40
0.0
 40
0.0
 40
1.0
 40
1.0
 40
1.0
 40
1.0
 10
48.331099999999999
 20
-41.4465
 30
0.0
 10
48.331099999999999
 20
-41.4465
 30
0.0
 10
48.331099999999999
 20
-57.155300000000004
 30
0.0
 10
48.331099999999999
 20
-57.155300000000004
 30
0.0
  0
SPLINE
  5
33
100
AcDbEntity
  8
Ebene 1
370
    15
100
AcDbSpline
210
0.0
220
0.0
230
1.0
 70
     0
 71
     3
 72
     8
 73
     4
 74
     0
 42
0.0000000001
 43
0.0000000001
 40
0.0
 40
0.0
 40
0.0
 40
0.0
 40
1.0
 40
1.0
 40
1.0
 40
1.0
 10
-28.669
 20
-41.4465
 30
0.0
 10
-28.669
 20
-41.4465
 30
0.0
 10
-28.669
 20
-57.155300000000004
 30
0.0
 10
-28.669
 20
-57.155300000000004
 30
0.0
  0
SPLINE
  5
34
100
AcDbEntity
  8
Ebene 1
370
    15
100
AcDbSpline
210
0.0
220
0.0
230
1.0
 70
     1
 71
     3
 72
    16
 73
    12
 74
     0
 42
0.0000000001
 43
0.0000000001
 40
0.0
 40
0.0
 40
0.0
 40
0.0
 40
0.3333333333333333
 40
0.3333333333333333
 40
0.3333333333333333
 40
0.3333333333333333
 40
0.6666666666666666
 40
0.6666666666666666
 40
0.6666666666666666
 40
0.6666666666666666
 40
1.0
 40
1.0
 40
1.0
 40
1.0
 10
-28.669
 20
-48.393799999999999
 30
0.0
 10
-28.669
 20
-48.393799999999999
 30
0.0
 10
-22.668900000000001
 20
-47.4938
 30
0.0
 10
-22.668900000000001
 20
-47.4938
 30
0.0
 10
-22.668900000000001
 20
-47.4938
 30
0.0
 10
-22.668900000000001
 20
-47.4938
 30
0.0
 10
-22.668900000000001
 20
-49.294000000000004
 30
0.0
 10
-22.668900000000001
 20
-49.294000000000004
 30
0.0
 10
-22.668900000000001
 20
-49.294000000000004
 30
0.0
 10
-22.668900000000001
 20
-49.294000000000004
 30
0.0
 10
-28.669
 20
-48.393799999999999
 30
0.0
 10
-28.669
 20
-48.393799999999999
 30
0.0
  0
SPLINE
  5
35
100
AcDbEntity
  8
Ebene 1
370
    15
100
AcDbSpline
210
0.0
220
0.0
230
1.0
 70
     1
 71
     3
 72
    16
 73
    12
 74
     0
 42
0.0000000001
 43
0.0000000001
 40
0.0
 40
0.0
 40
0.0
 40
0.0
 40
0.3333333333333333
 40
0.3333333333333333
 40
0.3333333333333333
 40
0.3333333333333333
 40
0.6666666666666666
 40
0.6666666666666666
 40
0.6666666666666666
 40
0.6666666666666666
 40
1.0
 40
1.0
 40
1.0
 40
1.0
 10
-29.668800000000001
 20
-48.393799999999999
 30
0.0
 10
-29.668800000000001
 20
-48.393799999999999
 30
0.0
 10
-35.668800000000005
 20
-49.294000000000004
 30
0.0
 10
-35.668800000000005
 20
-49.294000000000004
 30
0.0
 10
-35.668800000000005
 20
-49.294000000000004
 30
0.0
 10
-35.668800000000005
 20
-49.294000000000004
 30
0.0
 10
-35.668800000000005
 20
-47.4938
 30
0.0
 10
-35.668800000000005
 20
-47.4938
 30
0.0
 10
-35.668800000000005
 20
-47.4938
 30
0.0
 10
-35.668800000000005
 20
-47.4938
 30
0.0
 10
-29.668800000000001
 20
-48.393799999999999
 30
0.0
 10
-29.668800000000001
 20
-48.393799999999999
 30
0.0
  0
SPLINE
  5
36
100
AcDbEntity
  8
Ebene 1
370
    15
100
AcDbSpline
210
0.0
220
0.0
230
1.0
 70
     0
 71
     3
 72
     8
 73
     4
 74
     0
 42
0.0000000001
 43
0.0000000001
 40
0.0
 40
0.0
 40
0.0
 40
0.0
 40
1.0
 40
1.0
 40
1.0
 40
1.0
 10
-28.669
 20
-48.393799999999999
 30
0.0
 10
-28.669
 20
-48.393799999999999
 30
0.0
 10
-16.668900000000001
 20
-48.393799999999999
 30
0.0
 10
-16.668900000000001
 20
-48.393799999999999
 30
0.0
  0
SPLINE
  5
37
100
AcDbEntity
  8
Ebene 1
370
    15
100
AcDbSpline
210
0.0
220
0.0
230
1.0
 70
     0
 71
     3
 72
     8
 73
     4
 74
     0
 42
0.0000000001
 43
0.0000000001
 40
0.0
 40
0.0
 40
0.0
 40
0.0
 40
1.0
 40
1.0
 40
1.0
 40
1.0
 10
-29.668800000000001
 20
-48.393799999999999
 30
0.0
 10
-29.668800000000001
 20
-48.393799999999999
 30
0.0
 10
-28.669
 20
-48.393799999999999
 30
0.0
 10
-28.669
 20
-48.393799999999999
 30
0.0
  0
SPLINE
  5
38
100
AcDbEntity
  8
Ebene 1
370
    15
100
AcDbSpline
210
0.0
220
0.0
230
1.0
 70
     0
 71
     3
 72
     8
 73
     4
 74
     0
 42
0.0000000001
 43
0.0000000001
 40
0.0
 40
0.0
 40
0.0
 40
0.0
 40
1.0
 40
1.0
 40
1.0
 40
1.0
 10
-29.668800000000001
 20
-48.393799999999999
 30
0.0
 10
-29.668800000000001
 20
-48.393799999999999
 30
0.0
 10
-40.673300000000005
 20
-48.393799999999999
 30
0.0
 10
-40.673300000000005
 20
-48.393799999999999
 30
0.0
  0
SPLINE
  5
39
100
AcDbEntity
  8
Ebene 1
370
    15
100
AcDbSpline
210
0.0
220
0.0
230
1.0
 70
     0
 71
     3
 72
     8
 73
     4
 74
     0
 42
0.0000000001
 43
0.0000000001
 40
0.0
 40
0.0
 40
0.0
 40
0.0
 40
1.0
 40
1.0
 40
1.0
 40
1.0
 10
-28.669
 20
-41.4465
 30
0.0
 10
-28.669
 20
-41.4465
 30
0.0
 10
-28.669
 20
-49.393900000000002
 30
0.0
 10
-28.669
 20
-49.393900000000002
 30
0.0
  0
SPLINE
  5
3A
100
AcDbEntity
  8
Ebene 1
370
    15
100
AcDbSpline
210
0.0
220
0.0
230
1.0
 70
     0
 71
     3
 72
     8
 73
     4
 74
     0
 42
0.0000000001
 43
0.0000000001
 40
0.0
 40
0.0
 40
0.0
 40
0.0
 40
1.0
 40
1.0
 40
1.0
 40
1.0
 10
-29.668800000000001
 20
-41.4465
 30
0.0
 10
-29.668800000000001
 20
-41.4465
 30
0.0
 10
-29.668800000000001
 20
-49.393900000000002
 30
0.0
 10
-29.668800000000001
 20
-49.393900000000002
 30
0.0
  0
SPLINE
  5
3B
100
AcDbEntity
  8
Ebene 1
370
    15
100
AcDbSpline
210
0.0
220
0.0
230
1.0
 70
     1
 71
     3
 72
    16
 73
    12
 74
     0
 42
0.0000000001
 43
0.0000000001
 40
0.0
 40
0.0
 40
0.0
 40
0.0
 40
0.3333333333333333
 40
0.3333333333333333
 40
0.3333333333333333
 40
0.3333333333333333
 40
0.6666666666666666
 40
0.6666666666666666
 40
0.6666666666666666
 40
0.6666666666666666
 40
1.0
 40
1.0
 40
1.0
 40
1.0
 10
-56.803699999999999
 20
24.553599999999999
 30
0.0
 10
-56.803699999999999
 20
24.553599999999999
 30
0.0
 10
-55.903800000000004
 20
18.553599999999999
 30
0.0
 10
-55.903800000000004
 20
18.553599999999999
 30
0.0
 10
-55.903800000000004
 20
18.553599999999999
 30
0.0
 10
-55.903800000000004
 20
18.553599999999999
 30
0.0
 10
-57.703600000000002
 20
18.553599999999999
 30
0.0
 10
-57.703600000000002
 20
18.553599999999999
 30
0.0
 10
-57.703600000000002
 20
18.553599999999999
 30
0.0
 10
-57.703600000000002
 20
18.553599999999999
 30
0.0
 10
-56.803699999999999
 20
24.553599999999999
 30
0.0
 10
-56.803699999999999
 20
24.553599999999999
 30
0.0
  0
SPLINE
  5
3C
100
AcDbEntity
  8
Ebene 1
370
    15
100
AcDbSpline
210
0.0
220
0.0
230
1.0
 70
     1
 71
     3
 72
    16
 73
    12
 74
     0
 42
0.0000000001
 43
0.0000000001
 40
0.0
 40
0.0
 40
0.0
 40
0.0
 40
0.3333333333333333
 40
0.3333333333333333
 40
0.3333333333333333
 40
0.3333333333333333
 40
0.6666666666666666
 40
0.6666666666666666
 40
0.6666666666666666
 40
0.6666666666666666
 40
1.0
 40
1.0
 40
1.0
 40
1.0
 10
-56.803699999999999
 20
-40.446400000000004
 30
0.0
 10
-56.803699999999999
 20
-40.446400000000004
 30
0.0
 10
-57.703600000000002
 20
-34.446300000000001
 30
0.0
 10
-57.703600000000002
 20
-34.446300000000001
 30
0.0
 10
-57.703600000000002
 20
-34.446300000000001
 30
0.0
 10
-57.703600000000002
 20
-34.446300000000001
 30
0.0
 10
-55.903800000000004
 20
-34.446300000000001
 30
0.0
 10
-55.903800000000004
 20
-34.446300000000001
 30
0.0
 10
-55.903800000000004
 20
-34.446300000000001
 30
0.0
 10
-55.903800000000004
 20
-34.446300000000001
 30
0.0
 10
-56.803699999999999
 20
-40.446400000000004
 30
0.0
 10
-56.803699999999999
 20
-40.446400000000004
 30
0.0
  0
SPLINE
  5
3D
100
AcDbEntity
  8
Ebene 1
370
    15
100
AcDbSpline
210
0.0
220
0.0
230
1.0
 70
     0
 71
     3
 72
     8
 73
     4
 74
     0
 42
0.0000000001
 43
0.0000000001
 40
0.0
 40
0.0
 40
0.0
 40
0.0
 40
1.0
 40
1.0
 40
1.0
 40
1.0
 10
-56.803699999999999
 20
-40.446400000000004
 30
0.0
 10
-56.803699999999999
 20
-40.446400000000004
 30
0.0
 10
-56.803699999999999
 20
24.553599999999999
 30
0.0
 10
-56.803699999999999
 20
24.553599999999999
 30
0.0
  0
SPLINE
  5
3E
100
AcDbEntity
  8
Ebene 1
370
    15
100
AcDbSpline
210
0.0
220
0.0
230
1.0
 70
     0
 71
     3
 72
     8
 73
     4
 74
     0
 42
0.0000000001
 43
0.0000000001
 40
0.0
 40
0.0
 40
0.0
 40
0.0
 40
1.0
 40
1.0
 40
1.0
 40
1.0
 10
-18.668800000000001
 20
24.553599999999999
 30
0.0
 10
-18.668800000000001
 20
24.553599999999999
 30
0.0
 10
-57.803800000000003
 20
24.553599999999999
 30
0.0
 10
-57.803800000000003
 20
24.553599999999999
 30
0.0
  0
SPLINE
  5
3F
100
AcDbEntity
  8
Ebene 1
370
    15
100
AcDbSpline
210
0.0
220
0.0
230
1.0
 70
     0
 71
     3
 72
     8
 73
     4
 74
     0
 42
0.0000000001
 43
0.0000000001
 40
0.0
 40
0.0
 40
0.0
 40
0.0
 40
1.0
 40
1.0
 40
1.0
 40
1.0
 10
-30.668900000000001
 20
-40.446400000000004
 30
0.0
 10
-30.668900000000001
 20
-40.446400000000004
 30
0.0
 10
-57.803800000000003
 20
-40.446400000000004
 30
0.0
 10
-57.803800000000003
 20
-40.446400000000004
 30
0.0
  0
SPLINE
  5
40
100
AcDbEntity
  8
Ebene 1
370
    15
100
AcDbSpline
210
0.0
220
0.0
230
1.0
 70
     0
 71
     3
 72
     8
 73
     4
 74
     0
 42
0.0000000001
 43
0.0000000001
 40
0.0
 40
0.0
 40
0.0
 40
0.0
 40
1.0
 40
1.0
 40
1.0
 40
1.0
 10
-30.668900000000001
 20
-40.446400000000004
 30
0.0
 10
-30.668900000000001
 20
-40.446400000000004
 30
0.0
 10
-50.5426
 20
-40.446400000000004
 30
0.0
 10
-50.5426
 20
-40.446400000000004
 30
0.0
  0
SPLINE
  5
41
100
AcDbEntity
  8
Ebene 1
100
AcDbSpline
210
0.0
220
0.0
230
1.0
 70
     1
 71
     3
 72
    16
 73
    12
 74
     0
 42
0.0000000001
 43
0.0000000001
 40
0.0
 40
0.0
 40
0.0
 40
0.0
 40
0.3333333333333333
 40
0.3333333333333333
 40
0.3333333333333333
 40
0.3333333333333333
 40
0.6666666666666666
 40
0.6666666666666666
 40
0.6666666666666666
 40
0.6666666666666666
 40
1.0
 40
1.0
 40
1.0
 40
1.0
 10
48.331099999999999
 20
-56.1556
 30
0.0
 10
48.331099999999999
 20
-56.1556
 30
0.0
 10
42.331099999999999
 20
-57.055500000000002
 30
0.0
 10
42.331099999999999
 20
-57.055500000000002
 30
0.0
 10
42.331099999999999
 20
-57.055500000000002
 30
0.0
 10
42.331099999999999
 20
-57.055500000000002
 30
0.0
 10
42.331099999999999
 20
-55.255600000000001
 30
0.0
 10
42.331099999999999
 20
-55.255600000000001
 30
0.0
 10
42.331099999999999
 20
-55.255600000000001
 30
0.0
 10
42.331099999999999
 20
-55.255600000000001
 30
0.0
 10
48.331099999999999
 20
-56.1556
 30
0.0
 10
48.331099999999999
 20
-56.1556
 30
0.0
  0
SPLINE
  5
42
100
AcDbEntity
  8
Ebene 1
370
    15
100
AcDbSpline
210
0.0
220
0.0
230
1.0
 70
     0
 71
     3
 72
     8
 73
     4
 74
     0
 42
0.0000000001
 43
0.0000000001
 40
0.0
 40
0.0
 40
0.0
 40
0.0
 40
1.0
 40
1.0
 40
1.0
 40
1.0
 10
-28.558600000000002
 20
17.5947
 30
0.0
 10
-28.558600000000002
 20
17.5947
 30
0.0
 10
-22.709900000000001
 20
23.4434
 30
0.0
 10
-22.709900000000001
 20
23.4434
 30
0.0
  0
SPLINE
  5
43
100
AcDbEntity
  8
Ebene 1
370
    15
100
AcDbSpline
210
0.0
220
0.0
230
1.0
 70
     0
 71
     3
 72
     8
 73
     4
 74
     0
 42
0.0000000001
 43
0.0000000001
 40
0.0
 40
0.0
 40
0.0
 40
0.0
 40
1.0
 40
1.0
 40
1.0
 40
1.0
 10
-21.418700000000001
 20
20.244500000000002
 30
0.0
 10
-21.418700000000001
 20
20.244500000000002
 30
0.0
 10
-17.109500000000001
 20
24.553599999999999
 30
0.0
 10
-17.109500000000001
 20
24.553599999999999
 30
0.0
  0
SPLINE
  5
44
100
AcDbEntity
  8
Ebene 1
370
    15
100
AcDbSpline
210
0.0
220
0.0
230
1.0
 70
     0
 71
     3
 72
     8
 73
     4
 74
     0
 42
0.0000000001
 43
0.0000000001
 40
0.0
 40
0.0
 40
0.0
 40
0.0
 40
1.0
 40
1.0
 40
1.0
 40
1.0
 10
-29.668800000000001
 20
11.994400000000001
 30
0.0
 10
-29.668800000000001
 20
11.994400000000001
 30
0.0
 10
-28.6587
 20
13.004800000000001
 30
0.0
 10
-28.6587
 20
13.004800000000001
 30
0.0
  0
SPLINE
  5
45
100
AcDbEntity
  8
Ebene 1
370
    15
100
AcDbSpline
210
0.0
220
0.0
230
1.0
 70
     0
 71
     3
 72
     8
 73
     4
 74
     0
 42
0.0000000001
 43
0.0000000001
 40
0.0
 40
0.0
 40
0.0
 40
0.0
 40
1.0
 40
1.0
 40
1.0
 40
1.0
 10
-21.418700000000001
 20
15.754300000000001
 30
0.0
 10
-21.418700000000001
 20
15.754300000000001
 30
0.0
 10
-13.843100000000002
 20
23.329900000000002
 30
0.0
 10
-13.843100000000002
 20
23.329900000000002
 30
0.0
  0
SPLINE
  5
46
100
AcDbEntity
  8
Ebene 1
370
    15
100
AcDbSpline
210
0.0
220
0.0
230
1.0
 70
     0
 71
     3
 72
     8
 73
     4
 74
     0
 42
0.0000000001
 43
0.0000000001
 40
0.0
 40
0.0
 40
0.0
 40
0.0
 40
1.0
 40
1.0
 40
1.0
 40
1.0
 10
-29.668800000000001
 20
7.5042
 30
0.0
 10
-29.668800000000001
 20
7.5042
 30
0.0
 10
-28.669
 20
8.5044000000000004
 30
0.0
 10
-28.669
 20
8.5044000000000004
 30
0.0
  0
SPLINE
  5
47
100
AcDbEntity
  8
Ebene 1
370
    15
100
AcDbSpline
210
0.0
220
0.0
230
1.0
 70
     0
 71
     3
 72
     8
 73
     4
 74
     0
 42
0.0000000001
 43
0.0000000001
 40
0.0
 40
0.0
 40
0.0
 40
0.0
 40
1.0
 40
1.0
 40
1.0
 40
1.0
 10
-2.8202000000000003
 20
29.8629
 30
0.0
 10
-2.8202000000000003
 20
29.8629
 30
0.0
 10
0.7721
 20
33.454900000000002
 30
0.0
 10
0.7721
 20
33.454900000000002
 30
0.0
  0
SPLINE
  5
48
100
AcDbEntity
  8
Ebene 1
370
    15
100
AcDbSpline
210
0.0
220
0.0
230
1.0
 70
     0
 71
     3
 72
     8
 73
     4
 74
     0
 42
0.0000000001
 43
0.0000000001
 40
0.0
 40
0.0
 40
0.0
 40
0.0
 40
1.0
 40
1.0
 40
1.0
 40
1.0
 10
-21.418700000000001
 20
11.264100000000001
 30
0.0
 10
-21.418700000000001
 20
11.264100000000001
 30
0.0
 10
-13.843100000000002
 20
18.839700000000001
 30
0.0
 10
-13.843100000000002
 20
18.839700000000001
 30
0.0
  0
SPLINE
  5
49
100
AcDbEntity
  8
Ebene 1
370
    15
100
AcDbSpline
210
0.0
220
0.0
230
1.0
 70
     0
 71
     3
 72
     8
 73
     4
 74
     0
 42
0.0000000001
 43
0.0000000001
 40
0.0
 40
0.0
 40
0.0
 40
0.0
 40
1.0
 40
1.0
 40
1.0
 40
1.0
 10
-29.668800000000001
 20
3.0141
 30
0.0
 10
-29.668800000000001
 20
3.0141
 30
0.0
 10
-28.669
 20
4.0141999999999998
 30
0.0
 10
-28.669
 20
4.0141999999999998
 30
0.0
  0
SPLINE
  5
4A
100
AcDbEntity
  8
Ebene 1
370
    15
100
AcDbSpline
210
0.0
220
0.0
230
1.0
 70
     0
 71
     3
 72
     8
 73
     4
 74
     0
 42
0.0000000001
 43
0.0000000001
 40
0.0
 40
0.0
 40
0.0
 40
0.0
 40
1.0
 40
1.0
 40
1.0
 40
1.0
 10
-19.138999999999999
 20
9.0536000000000012
 30
0.0
 10
-19.138999999999999
 20
9.0536000000000012
 30
0.0
 10
-12.693100000000001
 20
15.499600000000001
 30
0.0
 10
-12.693100000000001
 20
15.499600000000001
 30
0.0
  0
SPLINE
  5
4B
100
AcDbEntity
  8
Ebene 1
370
    15
100
AcDbSpline
210
0.0
220
0.0
230
1.0
 70
     0
 71
     3
 72
     8
 73
     4
 74
     0
 42
0.0000000001
 43
0.0000000001
 40
0.0
 40
0.0
 40
0.0
 40
0.0
 40
1.0
 40
1.0
 40
1.0
 40
1.0
 10
-29.668800000000001
 20
-1.4761
 30
0.0
 10
-29.668800000000001
 20
-1.4761
 30
0.0
 10
-28.669
 20
-0.4759000000000001
 30
0.0
 10
-28.669
 20
-0.4759000000000001
 30
0.0
  0
SPLINE
  5
4C
100
AcDbEntity
  8
Ebene 1
370
    15
100
AcDbSpline
210
0.0
220
0.0
230
1.0
 70
     0
 71
     3
 72
     8
 73
     4
 74
     0
 42
0.0000000001
 43
0.0000000001
 40
0.0
 40
0.0
 40
0.0
 40
0.0
 40
1.0
 40
1.0
 40
1.0
 40
1.0
 10
-17.918800000000001
 20
5.7837000000000005
 30
0.0
 10
-17.918800000000001
 20
5.7837000000000005
 30
0.0
 10
-16.850899999999999
 20
6.8520000000000003
 30
0.0
 10
-16.850899999999999
 20
6.8520000000000003
 30
0.0
  0
SPLINE
  5
4D
100
AcDbEntity
  8
Ebene 1
370
    15
100
AcDbSpline
210
0.0
220
0.0
230
1.0
 70
     0
 71
     3
 72
     8
 73
     4
 74
     0
 42
0.0000000001
 43
0.0000000001
 40
0.0
 40
0.0
 40
0.0
 40
0.0
 40
1.0
 40
1.0
 40
1.0
 40
1.0
 10
-29.668800000000001
 20
-5.9662000000000006
 30
0.0
 10
-29.668800000000001
 20
-5.9662000000000006
 30
0.0
 10
-28.669
 20
-4.9661
 30
0.0
 10
-28.669
 20
-4.9661
 30
0.0
  0
SPLINE
  5
4E
100
AcDbEntity
  8
Ebene 1
370
    15
100
AcDbSpline
210
0.0
220
0.0
230
1.0
 70
     0
 71
     3
 72
     8
 73
     4
 74
     0
 42
0.0000000001
 43
0.0000000001
 40
0.0
 40
0.0
 40
0.0
 40
0.0
 40
1.0
 40
1.0
 40
1.0
 40
1.0
 10
11.341000000000001
 20
30.553700000000003
 30
0.0
 10
11.341000000000001
 20
30.553700000000003
 30
0.0
 10
15.311500000000001
 20
34.523800000000001
 30
0.0
 10
15.311500000000001
 20
34.523800000000001
 30
0.0
  0
SPLINE
  5
4F
100
AcDbEntity
  8
Ebene 1
370
    15
100
AcDbSpline
210
0.0
220
0.0
230
1.0
 70
     0
 71
     3
 72
     8
 73
     4
 74
     0
 42
0.0000000001
 43
0.0000000001
 40
0.0
 40
0.0
 40
0.0
 40
0.0
 40
1.0
 40
1.0
 40
1.0
 40
1.0
 10
-17.229800000000001
 20
1.9826000000000001
 30
0.0
 10
-17.229800000000001
 20
1.9826000000000001
 30
0.0
 10
-11.066800000000001
 20
8.145900000000001
 30
0.0
 10
-11.066800000000001
 20
8.145900000000001
 30
0.0
  0
SPLINE
  5
50
100
AcDbEntity
  8
Ebene 1
370
    15
100
AcDbSpline
210
0.0
220
0.0
230
1.0
 70
     0
 71
     3
 72
     8
 73
     4
 74
     0
 42
0.0000000001
 43
0.0000000001
 40
0.0
 40
0.0
 40
0.0
 40
0.0
 40
1.0
 40
1.0
 40
1.0
 40
1.0
 10
-29.668800000000001
 20
-10.4564
 30
0.0
 10
-29.668800000000001
 20
-10.4564
 30
0.0
 10
-28.669
 20
-9.4563000000000006
 30
0.0
 10
-28.669
 20
-9.4563000000000006
 30
0.0
  0
SPLINE
  5
51
100
AcDbEntity
  8
Ebene 1
370
    15
100
AcDbSpline
210
0.0
220
0.0
230
1.0
 70
     0
 71
     3
 72
     8
 73
     4
 74
     0
 42
0.0000000001
 43
0.0000000001
 40
0.0
 40
0.0
 40
0.0
 40
0.0
 40
1.0
 40
1.0
 40
1.0
 40
1.0
 10
15.7034
 20
30.426000000000002
 30
0.0
 10
15.7034
 20
30.426000000000002
 30
0.0
 10
18.787700000000001
 20
33.510300000000001
 30
0.0
 10
18.787700000000001
 20
33.510300000000001
 30
0.0
  0
SPLINE
  5
52
100
AcDbEntity
  8
Ebene 1
370
    15
100
AcDbSpline
210
0.0
220
0.0
230
1.0
 70
     0
 71
     3
 72
     8
 73
     4
 74
     0
 42
0.0000000001
 43
0.0000000001
 40
0.0
 40
0.0
 40
0.0
 40
0.0
 40
1.0
 40
1.0
 40
1.0
 40
1.0
 10
-13.668900000000001
 20
1.0537000000000001
 30
0.0
 10
-13.668900000000001
 20
1.0537000000000001
 30
0.0
 10
-3.7643
 20
10.958300000000001
 30
0.0
 10
-3.7643
 20
10.958300000000001
 30
0.0
  0
SPLINE
  5
53
100
AcDbEntity
  8
Ebene 1
370
    15
100
AcDbSpline
210
0.0
220
0.0
230
1.0
 70
     0
 71
     3
 72
     8
 73
     4
 74
     0
 42
0.0000000001
 43
0.0000000001
 40
0.0
 40
0.0
 40
0.0
 40
0.0
 40
1.0
 40
1.0
 40
1.0
 40
1.0
 10
-29.668800000000001
 20
-14.946200000000001
 30
0.0
 10
-29.668800000000001
 20
-14.946200000000001
 30
0.0
 10
-28.669
 20
-13.946400000000001
 30
0.0
 10
-28.669
 20
-13.946400000000001
 30
0.0
  0
SPLINE
  5
54
100
AcDbEntity
  8
Ebene 1
370
    15
100
AcDbSpline
210
0.0
220
0.0
230
1.0
 70
     0
 71
     3
 72
     8
 73
     4
 74
     0
 42
0.0000000001
 43
0.0000000001
 40
0.0
 40
0.0
 40
0.0
 40
0.0
 40
1.0
 40
1.0
 40
1.0
 40
1.0
 10
18.467400000000001
 20
28.6998
 30
0.0
 10
18.467400000000001
 20
28.6998
 30
0.0
 10
21.020099999999999
 20
31.252500000000001
 30
0.0
 10
21.020099999999999
 20
31.252500000000001
 30
0.0
  0
SPLINE
  5
55
100
AcDbEntity
  8
Ebene 1
370
    15
100
AcDbSpline
210
0.0
220
0.0
230
1.0
 70
     0
 71
     3
 72
     8
 73
     4
 74
     0
 42
0.0000000001
 43
0.0000000001
 40
0.0
 40
0.0
 40
0.0
 40
0.0
 40
1.0
 40
1.0
 40
1.0
 40
1.0
 10
12.321300000000001
 20
22.553700000000003
 30
0.0
 10
12.321300000000001
 20
22.553700000000003
 30
0.0
 10
14.321200000000001
 20
24.553599999999999
 30
0.0
 10
14.321200000000001
 20
24.553599999999999
 30
0.0
  0
SPLINE
  5
56
100
AcDbEntity
  8
Ebene 1
370
    15
100
AcDbSpline
210
0.0
220
0.0
230
1.0
 70
     0
 71
     3
 72
     8
 73
     4
 74
     0
 42
0.0000000001
 43
0.0000000001
 40
0.0
 40
0.0
 40
0.0
 40
0.0
 40
1.0
 40
1.0
 40
1.0
 40
1.0
 10
-9.178700000000001
 20
1.0537000000000001
 30
0.0
 10
-9.178700000000001
 20
1.0537000000000001
 30
0.0
 10
2.0199000000000003
 20
12.2523
 30
0.0
 10
2.0199000000000003
 20
12.2523
 30
0.0
  0
SPLINE
  5
57
100
AcDbEntity
  8
Ebene 1
370
    15
100
AcDbSpline
210
0.0
220
0.0
230
1.0
 70
     0
 71
     3
 72
     8
 73
     4
 74
     0
 42
0.0000000001
 43
0.0000000001
 40
0.0
 40
0.0
 40
0.0
 40
0.0
 40
1.0
 40
1.0
 40
1.0
 40
1.0
 10
-29.668800000000001
 20
-19.436299999999999
 30
0.0
 10
-29.668800000000001
 20
-19.436299999999999
 30
0.0
 10
-28.669
 20
-18.436600000000002
 30
0.0
 10
-28.669
 20
-18.436600000000002
 30
0.0
  0
SPLINE
  5
58
100
AcDbEntity
  8
Ebene 1
370
    15
100
AcDbSpline
210
0.0
220
0.0
230
1.0
 70
     0
 71
     3
 72
     8
 73
     4
 74
     0
 42
0.0000000001
 43
0.0000000001
 40
0.0
 40
0.0
 40
0.0
 40
0.0
 40
1.0
 40
1.0
 40
1.0
 40
1.0
 10
19.581099999999999
 20
25.323399999999999
 30
0.0
 10
19.581099999999999
 20
25.323399999999999
 30
0.0
 10
22.998200000000001
 20
28.740400000000001
 30
0.0
 10
22.998200000000001
 20
28.740400000000001
 30
0.0
  0
SPLINE
  5
59
100
AcDbEntity
  8
Ebene 1
370
    15
100
AcDbSpline
210
0.0
220
0.0
230
1.0
 70
     0
 71
     3
 72
     8
 73
     4
 74
     0
 42
0.0000000001
 43
0.0000000001
 40
0.0
 40
0.0
 40
0.0
 40
0.0
 40
1.0
 40
1.0
 40
1.0
 40
1.0
 10
16.811500000000002
 20
22.553700000000003
 30
0.0
 10
16.811500000000002
 20
22.553700000000003
 30
0.0
 10
18.811400000000003
 20
24.553599999999999
 30
0.0
 10
18.811400000000003
 20
24.553599999999999
 30
0.0
  0
SPLINE
  5
5A
100
AcDbEntity
  8
Ebene 1
370
    15
100
AcDbSpline
210
0.0
220
0.0
230
1.0
 70
     0
 71
     3
 72
     8
 73
     4
 74
     0
 42
0.0000000001
 43
0.0000000001
 40
0.0
 40
0.0
 40
0.0
 40
0.0
 40
1.0
 40
1.0
 40
1.0
 40
1.0
 10
-4.6886000000000001
 20
1.0537000000000001
 30
0.0
 10
-4.6886000000000001
 20
1.0537000000000001
 30
0.0
 10
11.274600000000001
 20
17.0169
 30
0.0
 10
11.274600000000001
 20
17.0169
 30
0.0
  0
SPLINE
  5
5B
100
AcDbEntity
  8
Ebene 1
370
    15
100
AcDbSpline
210
0.0
220
0.0
230
1.0
 70
     0
 71
     3
 72
     8
 73
     4
 74
     0
 42
0.0000000001
 43
0.0000000001
 40
0.0
 40
0.0
 40
0.0
 40
0.0
 40
1.0
 40
1.0
 40
1.0
 40
1.0
 10
-29.668800000000001
 20
-23.926500000000001
 30
0.0
 10
-29.668800000000001
 20
-23.926500000000001
 30
0.0
 10
-28.669
 20
-22.9267
 30
0.0
 10
-28.669
 20
-22.9267
 30
0.0
  0
SPLINE
  5
5C
100
AcDbEntity
  8
Ebene 1
370
    15
100
AcDbSpline
210
0.0
220
0.0
230
1.0
 70
     0
 71
     3
 72
     8
 73
     4
 74
     0
 42
0.0000000001
 43
0.0000000001
 40
0.0
 40
0.0
 40
0.0
 40
0.0
 40
1.0
 40
1.0
 40
1.0
 40
1.0
 10
21.301600000000001
 20
22.553700000000003
 30
0.0
 10
21.301600000000001
 20
22.553700000000003
 30
0.0
 10
23.581300000000002
 20
24.833400000000001
 30
0.0
 10
23.581300000000002
 20
24.833400000000001
 30
0.0
  0
SPLINE
  5
5D
100
AcDbEntity
  8
Ebene 1
370
    15
100
AcDbSpline
210
0.0
220
0.0
230
1.0
 70
     0
 71
     3
 72
     8
 73
     4
 74
     0
 42
0.0000000001
 43
0.0000000001
 40
0.0
 40
0.0
 40
0.0
 40
0.0
 40
1.0
 40
1.0
 40
1.0
 40
1.0
 10
-0.1984
 20
1.0537000000000001
 30
0.0
 10
-0.1984
 20
1.0537000000000001
 30
0.0
 10
11.274600000000001
 20
12.5267
 30
0.0
 10
11.274600000000001
 20
12.5267
 30
0.0
  0
SPLINE
  5
5E
100
AcDbEntity
  8
Ebene 1
370
    15
100
AcDbSpline
210
0.0
220
0.0
230
1.0
 70
     0
 71
     3
 72
     8
 73
     4
 74
     0
 42
0.0000000001
 43
0.0000000001
 40
0.0
 40
0.0
 40
0.0
 40
0.0
 40
1.0
 40
1.0
 40
1.0
 40
1.0
 10
-29.668800000000001
 20
-28.416700000000002
 30
0.0
 10
-29.668800000000001
 20
-28.416700000000002
 30
0.0
 10
-28.669
 20
-27.416900000000002
 30
0.0
 10
-28.669
 20
-27.416900000000002
 30
0.0
  0
SPLINE
  5
5F
100
AcDbEntity
  8
Ebene 1
370
    15
100
AcDbSpline
210
0.0
220
0.0
230
1.0
 70
     0
 71
     3
 72
     8
 73
     4
 74
     0
 42
0.0000000001
 43
0.0000000001
 40
0.0
 40
0.0
 40
0.0
 40
0.0
 40
1.0
 40
1.0
 40
1.0
 40
1.0
 10
25.791800000000002
 20
22.553700000000003
 30
0.0
 10
25.791800000000002
 20
22.553700000000003
 30
0.0
 10
27.791700000000002
 20
24.553599999999999
 30
0.0
 10
27.791700000000002
 20
24.553599999999999
 30
0.0
  0
SPLINE
  5
60
100
AcDbEntity
  8
Ebene 1
370
    15
100
AcDbSpline
210
0.0
220
0.0
230
1.0
 70
     0
 71
     3
 72
     8
 73
     4
 74
     0
 42
0.0000000001
 43
0.0000000001
 40
0.0
 40
0.0
 40
0.0
 40
0.0
 40
1.0
 40
1.0
 40
1.0
 40
1.0
 10
4.2918000000000003
 20
1.0537000000000001
 30
0.0
 10
4.2918000000000003
 20
1.0537000000000001
 30
0.0
 10
11.274600000000001
 20
8.0366
 30
0.0
 10
11.274600000000001
 20
8.0366
 30
0.0
  0
SPLINE
  5
61
100
AcDbEntity
  8
Ebene 1
370
    15
100
AcDbSpline
210
0.0
220
0.0
230
1.0
 70
     0
 71
     3
 72
     8
 73
     4
 74
     0
 42
0.0000000001
 43
0.0000000001
 40
0.0
 40
0.0
 40
0.0
 40
0.0
 40
1.0
 40
1.0
 40
1.0
 40
1.0
 10
-29.668800000000001
 20
-32.906800000000004
 30
0.0
 10
-29.668800000000001
 20
-32.906800000000004
 30
0.0
 10
-28.669
 20
-31.907
 30
0.0
 10
-28.669
 20
-31.907
 30
0.0
  0
SPLINE
  5
62
100
AcDbEntity
  8
Ebene 1
370
    15
100
AcDbSpline
210
0.0
220
0.0
230
1.0
 70
     0
 71
     3
 72
     8
 73
     4
 74
     0
 42
0.0000000001
 43
0.0000000001
 40
0.0
 40
0.0
 40
0.0
 40
0.0
 40
1.0
 40
1.0
 40
1.0
 40
1.0
 10
30.282
 20
22.553700000000003
 30
0.0
 10
30.282
 20
22.553700000000003
 30
0.0
 10
32.2819
 20
24.553599999999999
 30
0.0
 10
32.2819
 20
24.553599999999999
 30
0.0
  0
SPLINE
  5
63
100
AcDbEntity
  8
Ebene 1
370
    15
100
AcDbSpline
210
0.0
220
0.0
230
1.0
 70
     0
 71
     3
 72
     8
 73
     4
 74
     0
 42
0.0000000001
 43
0.0000000001
 40
0.0
 40
0.0
 40
0.0
 40
0.0
 40
1.0
 40
1.0
 40
1.0
 40
1.0
 10
8.7819000000000003
 20
1.0537000000000001
 30
0.0
 10
8.7819000000000003
 20
1.0537000000000001
 30
0.0
 10
11.274600000000001
 20
3.5464000000000002
 30
0.0
 10
11.274600000000001
 20
3.5464000000000002
 30
0.0
  0
SPLINE
  5
64
100
AcDbEntity
  8
Ebene 1
370
    15
100
AcDbSpline
210
0.0
220
0.0
230
1.0
 70
     0
 71
     3
 72
     8
 73
     4
 74
     0
 42
0.0000000001
 43
0.0000000001
 40
0.0
 40
0.0
 40
0.0
 40
0.0
 40
1.0
 40
1.0
 40
1.0
 40
1.0
 10
-29.668800000000001
 20
-37.396999999999998
 30
0.0
 10
-29.668800000000001
 20
-37.396999999999998
 30
0.0
 10
-28.669
 20
-36.396799999999999
 30
0.0
 10
-28.669
 20
-36.396799999999999
 30
0.0
  0
SPLINE
  5
65
100
AcDbEntity
  8
Ebene 1
370
    15
100
AcDbSpline
210
0.0
220
0.0
230
1.0
 70
     0
 71
     3
 72
     8
 73
     4
 74
     0
 42
0.0000000001
 43
0.0000000001
 40
0.0
 40
0.0
 40
0.0
 40
0.0
 40
1.0
 40
1.0
 40
1.0
 40
1.0
 10
39.2224
 20
22.5139
 30
0.0
 10
39.2224
 20
22.5139
 30
0.0
 10
40.761200000000002
 20
24.053000000000001
 30
0.0
 10
40.761200000000002
 20
24.053000000000001
 30
0.0
  0
SPLINE
  5
66
100
AcDbEntity
  8
Ebene 1
370
    15
100
AcDbSpline
210
0.0
220
0.0
230
1.0
 70
     0
 71
     3
 72
     8
 73
     4
 74
     0
 42
0.0000000001
 43
0.0000000001
 40
0.0
 40
0.0
 40
0.0
 40
0.0
 40
1.0
 40
1.0
 40
1.0
 40
1.0
 10
46.073300000000003
 20
20.384500000000003
 30
0.0
 10
46.073300000000003
 20
20.384500000000003
 30
0.0
 10
46.260000000000005
 20
20.571100000000001
 30
0.0
 10
46.260000000000005
 20
20.571100000000001
 30
0.0
  0
SPLINE
  5
67
100
AcDbEntity
  8
Ebene 1
370
    15
100
AcDbSpline
210
0.0
220
0.0
230
1.0
 70
     0
 71
     3
 72
     8
 73
     4
 74
     0
 42
0.0000000001
 43
0.0000000001
 40
0.0
 40
0.0
 40
0.0
 40
0.0
 40
1.0
 40
1.0
 40
1.0
 40
1.0
 10
47.251600000000003
 20
17.073
 30
0.0
 10
47.251600000000003
 20
17.073
 30
0.0
 10
47.542700000000004
 20
17.363700000000001
 30
0.0
 10
47.542700000000004
 20
17.363700000000001
 30
0.0
  0
SPLINE
  5
68
100
AcDbEntity
  8
Ebene 1
370
    15
100
AcDbSpline
210
0.0
220
0.0
230
1.0
 70
     0
 71
     3
 72
     8
 73
     4
 74
     0
 42
0.0000000001
 43
0.0000000001
 40
0.0
 40
0.0
 40
0.0
 40
0.0
 40
1.0
 40
1.0
 40
1.0
 40
1.0
 10
48.275700000000001
 20
13.6066
 30
0.0
 10
48.275700000000001
 20
13.6066
 30
0.0
 10
49.171800000000005
 20
14.503
 30
0.0
 10
49.171800000000005
 20
14.503
 30
0.0
  0
SPLINE
  5
69
100
AcDbEntity
  8
Ebene 1
370
    15
100
AcDbSpline
210
0.0
220
0.0
230
1.0
 70
     0
 71
     3
 72
     8
 73
     4
 74
     0
 42
0.0000000001
 43
0.0000000001
 40
0.0
 40
0.0
 40
0.0
 40
0.0
 40
1.0
 40
1.0
 40
1.0
 40
1.0
 10
48.331099999999999
 20
9.1722000000000001
 30
0.0
 10
48.331099999999999
 20
9.1722000000000001
 30
0.0
 10
49.331200000000003
 20
10.1723
 30
0.0
 10
49.331200000000003
 20
10.1723
 30
0.0
  0
SPLINE
  5
6A
100
AcDbEntity
  8
Ebene 1
370
    15
100
AcDbSpline
210
0.0
220
0.0
230
1.0
 70
     0
 71
     3
 72
     8
 73
     4
 74
     0
 42
0.0000000001
 43
0.0000000001
 40
0.0
 40
0.0
 40
0.0
 40
0.0
 40
1.0
 40
1.0
 40
1.0
 40
1.0
 10
48.331099999999999
 20
4.6820000000000004
 30
0.0
 10
48.331099999999999
 20
4.6820000000000004
 30
0.0
 10
49.331200000000003
 20
5.6821000000000002
 30
0.0
 10
49.331200000000003
 20
5.6821000000000002
 30
0.0
  0
SPLINE
  5
6B
100
AcDbEntity
  8
Ebene 1
370
    15
100
AcDbSpline
210
0.0
220
0.0
230
1.0
 70
     0
 71
     3
 72
     8
 73
     4
 74
     0
 42
0.0000000001
 43
0.0000000001
 40
0.0
 40
0.0
 40
0.0
 40
0.0
 40
1.0
 40
1.0
 40
1.0
 40
1.0
 10
48.331099999999999
 20
0.1919
 30
0.0
 10
48.331099999999999
 20
0.1919
 30
0.0
 10
49.331200000000003
 20
1.1919999999999999
 30
0.0
 10
49.331200000000003
 20
1.1919999999999999
 30
0.0
  0
SPLINE
  5
6C
100
AcDbEntity
  8
Ebene 1
370
    15
100
AcDbSpline
210
0.0
220
0.0
230
1.0
 70
     0
 71
     3
 72
     8
 73
     4
 74
     0
 42
0.0000000001
 43
0.0000000001
 40
0.0
 40
0.0
 40
0.0
 40
0.0
 40
1.0
 40
1.0
 40
1.0
 40
1.0
 10
48.331099999999999
 20
-4.2983000000000002
 30
0.0
 10
48.331099999999999
 20
-4.2983000000000002
 30
0.0
 10
49.331200000000003
 20
-3.2982
 30
0.0
 10
49.331200000000003
 20
-3.2982
 30
0.0
  0
SPLINE
  5
6D
100
AcDbEntity
  8
Ebene 1
370
    15
100
AcDbSpline
210
0.0
220
0.0
230
1.0
 70
     0
 71
     3
 72
     8
 73
     4
 74
     0
 42
0.0000000001
 43
0.0000000001
 40
0.0
 40
0.0
 40
0.0
 40
0.0
 40
1.0
 40
1.0
 40
1.0
 40
1.0
 10
48.331099999999999
 20
-8.7884000000000011
 30
0.0
 10
48.331099999999999
 20
-8.7884000000000011
 30
0.0
 10
49.331200000000003
 20
-7.7883000000000004
 30
0.0
 10
49.331200000000003
 20
-7.7883000000000004
 30
0.0
  0
SPLINE
  5
6E
100
AcDbEntity
  8
Ebene 1
370
    15
100
AcDbSpline
210
0.0
220
0.0
230
1.0
 70
     0
 71
     3
 72
     8
 73
     4
 74
     0
 42
0.0000000001
 43
0.0000000001
 40
0.0
 40
0.0
 40
0.0
 40
0.0
 40
1.0
 40
1.0
 40
1.0
 40
1.0
 10
48.331099999999999
 20
-13.278600000000001
 30
0.0
 10
48.331099999999999
 20
-13.278600000000001
 30
0.0
 10
49.331200000000003
 20
-12.278500000000001
 30
0.0
 10
49.331200000000003
 20
-12.278500000000001
 30
0.0
  0
SPLINE
  5
6F
100
AcDbEntity
  8
Ebene 1
370
    15
100
AcDbSpline
210
0.0
220
0.0
230
1.0
 70
     0
 71
     3
 72
     8
 73
     4
 74
     0
 42
0.0000000001
 43
0.0000000001
 40
0.0
 40
0.0
 40
0.0
 40
0.0
 40
1.0
 40
1.0
 40
1.0
 40
1.0
 10
48.331099999999999
 20
-17.768800000000002
 30
0.0
 10
48.331099999999999
 20
-17.768800000000002
 30
0.0
 10
49.331200000000003
 20
-16.768599999999999
 30
0.0
 10
49.331200000000003
 20
-16.768599999999999
 30
0.0
  0
SPLINE
  5
70
100
AcDbEntity
  8
Ebene 1
370
    15
100
AcDbSpline
210
0.0
220
0.0
230
1.0
 70
     0
 71
     3
 72
     8
 73
     4
 74
     0
 42
0.0000000001
 43
0.0000000001
 40
0.0
 40
0.0
 40
0.0
 40
0.0
 40
1.0
 40
1.0
 40
1.0
 40
1.0
 10
48.331099999999999
 20
-22.258900000000001
 30
0.0
 10
48.331099999999999
 20
-22.258900000000001
 30
0.0
 10
49.331200000000003
 20
-21.258800000000001
 30
0.0
 10
49.331200000000003
 20
-21.258800000000001
 30
0.0
  0
SPLINE
  5
71
100
AcDbEntity
  8
Ebene 1
370
    15
100
AcDbSpline
210
0.0
220
0.0
230
1.0
 70
     0
 71
     3
 72
     8
 73
     4
 74
     0
 42
0.0000000001
 43
0.0000000001
 40
0.0
 40
0.0
 40
0.0
 40
0.0
 40
1.0
 40
1.0
 40
1.0
 40
1.0
 10
48.331099999999999
 20
-26.749100000000002
 30
0.0
 10
48.331099999999999
 20
-26.749100000000002
 30
0.0
 10
49.331200000000003
 20
-25.748900000000003
 30
0.0
 10
49.331200000000003
 20
-25.748900000000003
 30
0.0
  0
SPLINE
  5
72
100
AcDbEntity
  8
Ebene 1
370
    15
100
AcDbSpline
210
0.0
220
0.0
230
1.0
 70
     0
 71
     3
 72
     8
 73
     4
 74
     0
 42
0.0000000001
 43
0.0000000001
 40
0.0
 40
0.0
 40
0.0
 40
0.0
 40
1.0
 40
1.0
 40
1.0
 40
1.0
 10
48.331099999999999
 20
-31.238900000000001
 30
0.0
 10
48.331099999999999
 20
-31.238900000000001
 30
0.0
 10
49.331200000000003
 20
-30.239100000000001
 30
0.0
 10
49.331200000000003
 20
-30.239100000000001
 30
0.0
  0
SPLINE
  5
73
100
AcDbEntity
  8
Ebene 1
370
    15
100
AcDbSpline
210
0.0
220
0.0
230
1.0
 70
     0
 71
     3
 72
     8
 73
     4
 74
     0
 42
0.0000000001
 43
0.0000000001
 40
0.0
 40
0.0
 40
0.0
 40
0.0
 40
1.0
 40
1.0
 40
1.0
 40
1.0
 10
48.331099999999999
 20
-35.728999999999999
 30
0.0
 10
48.331099999999999
 20
-35.728999999999999
 30
0.0
 10
49.331200000000003
 20
-34.729300000000002
 30
0.0
 10
49.331200000000003
 20
-34.729300000000002
 30
0.0
  0
SPLINE
  5
74
100
AcDbEntity
  8
Ebene 1
370
    15
100
AcDbSpline
210
0.0
220
0.0
230
1.0
 70
     0
 71
     3
 72
     8
 73
     4
 74
     0
 42
0.0000000001
 43
0.0000000001
 40
0.0
 40
0.0
 40
0.0
 40
0.0
 40
1.0
 40
1.0
 40
1.0
 40
1.0
 10
48.331099999999999
 20
-40.219200000000001
 30
0.0
 10
48.331099999999999
 20
-40.219200000000001
 30
0.0
 10
49.331200000000003
 20
-39.2194
 30
0.0
 10
49.331200000000003
 20
-39.2194
 30
0.0
  0
SPLINE
  5
75
100
AcDbEntity
  8
Ebene 1
370
    15
100
AcDbSpline
210
0.0
220
0.0
230
1.0
 70
     0
 71
     3
 72
     8
 73
     4
 74
     0
 42
0.0000000001
 43
0.0000000001
 40
0.0
 40
0.0
 40
0.0
 40
0.0
 40
1.0
 40
1.0
 40
1.0
 40
1.0
 10
-10.5433
 20
22.139900000000001
 30
0.0
 10
-10.5433
 20
22.139900000000001
 30
0.0
 10
-8.1292000000000009
 20
24.553599999999999
 30
0.0
 10
-8.1292000000000009
 20
24.553599999999999
 30
0.0
  0
SPLINE
  5
76
100
AcDbEntity
  8
Ebene 1
370
    15
100
AcDbSpline
210
0.0
220
0.0
230
1.0
 70
     0
 71
     3
 72
     8
 73
     4
 74
     0
 42
0.0000000001
 43
0.0000000001
 40
0.0
 40
0.0
 40
0.0
 40
0.0
 40
1.0
 40
1.0
 40
1.0
 40
1.0
 10
-11.693000000000001
 20
16.499700000000001
 30
0.0
 10
-11.693000000000001
 20
16.499700000000001
 30
0.0
 10
-10.639200000000001
 20
17.553800000000003
 30
0.0
 10
-10.639200000000001
 20
17.553800000000003
 30
0.0
  0
SPLINE
  5
77
100
AcDbEntity
  8
Ebene 1
370
    15
100
AcDbSpline
210
0.0
220
0.0
230
1.0
 70
     0
 71
     3
 72
     8
 73
     4
 74
     0
 42
0.0000000001
 43
0.0000000001
 40
0.0
 40
0.0
 40
0.0
 40
0.0
 40
1.0
 40
1.0
 40
1.0
 40
1.0
 10
-10.5433
 20
17.649800000000003
 30
0.0
 10
-10.5433
 20
17.649800000000003
 30
0.0
 10
5.8609
 20
34.053600000000003
 30
0.0
 10
5.8609
 20
34.053600000000003
 30
0.0
  0
SPLINE
  5
78
100
AcDbEntity
  8
Ebene 1
370
    15
100
AcDbSpline
210
0.0
220
0.0
230
1.0
 70
     0
 71
     3
 72
     8
 73
     4
 74
     0
 42
0.0000000001
 43
0.0000000001
 40
0.0
 40
0.0
 40
0.0
 40
0.0
 40
1.0
 40
1.0
 40
1.0
 40
1.0
 10
7.351
 20
31.053600000000003
 30
0.0
 10
7.351
 20
31.053600000000003
 30
0.0
 10
10.851000000000001
 20
34.5535
 30
0.0
 10
10.851000000000001
 20
34.5535
 30
0.0
  0
SPLINE
  5
79
100
AcDbEntity
  8
Ebene 1
370
    15
100
AcDbSpline
210
0.0
220
0.0
230
1.0
 70
     0
 71
     3
 72
     8
 73
     4
 74
     0
 42
0.0000000001
 43
0.0000000001
 40
0.0
 40
0.0
 40
0.0
 40
0.0
 40
1.0
 40
1.0
 40
1.0
 40
1.0
 10
7.2385000000000002
 20
21.961100000000002
 30
0.0
 10
7.2385000000000002
 20
21.961100000000002
 30
0.0
 10
9.8311000000000011
 20
24.553599999999999
 30
0.0
 10
9.8311000000000011
 20
24.553599999999999
 30
0.0
  0
SPLINE
  5
7A
100
AcDbEntity
  8
Ebene 1
370
    15
100
AcDbSpline
210
0.0
220
0.0
230
1.0
 70
     0
 71
     3
 72
     8
 73
     4
 74
     0
 42
0.0000000001
 43
0.0000000001
 40
0.0
 40
0.0
 40
0.0
 40
0.0
 40
1.0
 40
1.0
 40
1.0
 40
1.0
 10
-7.4370000000000003
 20
16.265800000000002
 30
0.0
 10
-7.4370000000000003
 20
16.265800000000002
 30
0.0
 10
0.8508
 20
24.553599999999999
 30
0.0
 10
0.8508
 20
24.553599999999999
 30
0.0
  0
SPLINE
  5
7B
100
AcDbEntity
  8
Ebene 1
370
    15
100
AcDbSpline
210
0.0
220
0.0
230
1.0
 70
     0
 71
     3
 72
     8
 73
     4
 74
     0
 42
0.0000000001
 43
0.0000000001
 40
0.0
 40
0.0
 40
0.0
 40
0.0
 40
1.0
 40
1.0
 40
1.0
 40
1.0
 10
-1.6529
 20
17.559799999999999
 30
0.0
 10
-1.6529
 20
17.559799999999999
 30
0.0
 10
5.0887000000000002
 20
24.301000000000002
 30
0.0
 10
5.0887000000000002
 20
24.301000000000002
 30
0.0
  0
SPLINE
  5
7C
100
AcDbEntity
  8
Ebene 1
370
    15
100
AcDbSpline
210
0.0
220
0.0
230
1.0
 70
     0
 71
     3
 72
     8
 73
     4
 74
     0
 42
0.0000000001
 43
0.0000000001
 40
0.0
 40
0.0
 40
0.0
 40
0.0
 40
1.0
 40
1.0
 40
1.0
 40
1.0
 10
3.7347000000000001
 20
18.456900000000001
 30
0.0
 10
3.7347000000000001
 20
18.456900000000001
 30
0.0
 10
6.2387000000000006
 20
20.960900000000002
 30
0.0
 10
6.2387000000000006
 20
20.960900000000002
 30
0.0
  0
SPLINE
  5
7D
100
AcDbEntity
  8
Ebene 1
370
    15
100
AcDbSpline
210
0.0
220
0.0
230
1.0
 70
     0
 71
     3
 72
     8
 73
     4
 74
     0
 42
0.0000000001
 43
0.0000000001
 40
0.0
 40
0.0
 40
0.0
 40
0.0
 40
1.0
 40
1.0
 40
1.0
 40
1.0
 10
4.5556000000000001
 20
14.788
 30
0.0
 10
4.5556000000000001
 20
14.788
 30
0.0
 10
11.274600000000001
 20
21.507000000000001
 30
0.0
 10
11.274600000000001
 20
21.507000000000001
 30
0.0
  0
SPLINE
  5
7E
100
AcDbEntity
  8
Ebene 1
370
    15
100
AcDbSpline
210
0.0
220
0.0
230
1.0
 70
     0
 71
     3
 72
     8
 73
     4
 74
     0
 42
0.0000000001
 43
0.0000000001
 40
0.0
 40
0.0
 40
0.0
 40
0.0
 40
1.0
 40
1.0
 40
1.0
 40
1.0
 10
-12.494800000000001
 20
11.2081
 30
0.0
 10
-12.494800000000001
 20
11.2081
 30
0.0
 10
-10.4727
 20
13.229800000000001
 30
0.0
 10
-10.4727
 20
13.229800000000001
 30
0.0
  0
SPLINE
  5
7F
100
AcDbEntity
  8
Ebene 1
370
    15
100
AcDbSpline
210
0.0
220
0.0
230
1.0
 70
     0
 71
     3
 72
     8
 73
     4
 74
     0
 42
0.0000000001
 43
0.0000000001
 40
0.0
 40
0.0
 40
0.0
 40
0.0
 40
1.0
 40
1.0
 40
1.0
 40
1.0
 10
-10.147400000000001
 20
9.0648999999999997
 30
0.0
 10
-10.147400000000001
 20
9.0648999999999997
 30
0.0
 10
-9.5484000000000009
 20
9.6638999999999999
 30
0.0
 10
-9.5484000000000009
 20
9.6638999999999999
 30
0.0
  0
SPLINE
  5
80
100
AcDbEntity
  8
Ebene 1
370
    15
100
AcDbSpline
210
0.0
220
0.0
230
1.0
 70
     0
 71
     3
 72
     8
 73
     4
 74
     0
 42
0.0000000001
 43
0.0000000001
 40
0.0
 40
0.0
 40
0.0
 40
0.0
 40
1.0
 40
1.0
 40
1.0
 40
1.0
 10
35.642800000000001
 20
23.424700000000001
 30
0.0
 10
35.642800000000001
 20
23.424700000000001
 30
0.0
 10
36.272100000000002
 20
24.053800000000003
 30
0.0
 10
36.272100000000002
 20
24.053800000000003
 30
0.0
  0
SPLINE
  5
81
100
AcDbEntity
  8
Ebene 1
370
    35
100
AcDbSpline
210
0.0
220
0.0
230
1.0
 70
     0
 71
     3
 72
     8
 73
     4
 74
     0
 42
0.0000000001
 43
0.0000000001
 40
0.0
 40
0.0
 40
0.0
 40
0.0
 40
1.0
 40
1.0
 40
1.0
 40
1.0
 10
-5.9197000000000006
 20
24.653500000000001
 30
0.0
 10
-5.9197000000000006
 20
24.653500000000001
 30
0.0
 10
-5.9197000000000006
 20
24.553599999999999
 30
0.0
 10
-5.9197000000000006
 20
24.553599999999999
 30
0.0
  0
SPLINE
  5
82
100
AcDbEntity
  8
Ebene 1
370
    35
100
AcDbSpline
210
0.0
220
0.0
230
1.0
 70
     0
 71
     3
 72
     8
 73
     4
 74
     0
 42
0.0000000001
 43
0.0000000001
 40
0.0
 40
0.0
 40
0.0
 40
0.0
 40
1.0
 40
1.0
 40
1.0
 40
1.0
 10
26.081100000000003
 20
9.0536000000000012
 30
0.0
 10
26.081100000000003
 20
9.0536000000000012
 30
0.0
 10
26.081100000000003
 20
22.321300000000001
 30
0.0
 10
26.081100000000003
 20
22.321300000000001
 30
0.0
  0
SPLINE
  5
83
100
AcDbEntity
  8
Ebene 1
370
    35
100
AcDbSpline
210
0.0
220
0.0
230
1.0
 70
     0
 71
     3
 72
     8
 73
     4
 74
     0
 42
0.0000000001
 43
0.0000000001
 40
0.0
 40
0.0
 40
0.0
 40
0.0
 40
1.0
 40
1.0
 40
1.0
 40
1.0
 10
-21.418700000000001
 20
9.0536000000000012
 30
0.0
 10
-21.418700000000001
 20
9.0536000000000012
 30
0.0
 10
-21.418700000000001
 20
22.168200000000002
 30
0.0
 10
-21.418700000000001
 20
22.168200000000002
 30
0.0
  0
SPLINE
  5
84
100
AcDbEntity
  8
Ebene 1
370
    35
100
AcDbSpline
210
0.0
220
0.0
230
1.0
 70
     0
 71
     3
 72
    48
 73
    44
 74
     0
 42
0.0000000001
 43
0.0000000001
 40
0.0
 40
0.0
 40
0.0
 40
0.0
 40
0.0909090909090909
 40
0.0909090909090909
 40
0.0909090909090909
 40
0.0909090909090909
 40
0.1818181818181818
 40
0.1818181818181818
 40
0.1818181818181818
 40
0.1818181818181818
 40
0.2727272727272727
 40
0.2727272727272727
 40
0.2727272727272727
 40
0.2727272727272727
 40
0.3636363636363637
 40
0.3636363636363637
 40
0.3636363636363637
 40
0.3636363636363637
 40
0.4545454545454546
 40
0.4545454545454546
 40
0.4545454545454546
 40
0.4545454545454546
 40
0.5454545454545455
 40
0.5454545454545455
 40
0.5454545454545455
 40
0.5454545454545455
 40
0.6363636363636365
 40
0.6363636363636365
 40
0.6363636363636365
 40
0.6363636363636365
 40
0.7272727272727274
 40
0.7272727272727274
 40
0.7272727272727274
 40
0.7272727272727274
 40
0.8181818181818183
 40
0.8181818181818183
 40
0.8181818181818183
 40
0.8181818181818183
 40
0.9090909090909093
 40
0.9090909090909093
 40
0.9090909090909093
 40
0.9090909090909093
 40
1.0
 40
1.0
 40
1.0
 40
1.0
 10
-21.418700000000001
 20
22.168200000000002
 30
0.0
 10
-21.418700000000001
 20
22.168200000000002
 30
0.0
 10
-22.526800000000001
 20
21.779400000000003
 30
0.0
 10
-22.526800000000001
 20
21.779400000000003
 30
0.0
 10
-22.526800000000001
 20
21.779400000000003
 30
0.0
 10
-22.526800000000001
 20
21.779400000000003
 30
0.0
 10
-23.581600000000002
 20
21.2636
 30
0.0
 10
-23.581600000000002
 20
21.2636
 30
0.0
 10
-23.581600000000002
 20
21.2636
 30
0.0
 10
-23.581600000000002
 20
21.2636
 30
0.0
 10
-24.568300000000001
 20
20.6279
 30
0.0
 10
-24.568300000000001
 20
20.6279
 30
0.0
 10
-24.568300000000001
 20
20.6279
 30
0.0
 10
-24.568300000000001
 20
20.6279
 30
0.0
 10
-25.4742
 20
19.880700000000001
 30
0.0
 10
-25.4742
 20
19.880700000000001
 30
0.0
 10
-25.4742
 20
19.880700000000001
 30
0.0
 10
-25.4742
 20
19.880700000000001
 30
0.0
 10
-26.286000000000001
 20
19.032700000000002
 30
0.0
 10
-26.286000000000001
 20
19.032700000000002
 30
0.0
 10
-26.286000000000001
 20
19.032700000000002
 30
0.0
 10
-26.286000000000001
 20
19.032700000000002
 30
0.0
 10
-26.992900000000002
 20
18.095300000000002
 30
0.0
 10
-26.992900000000002
 20
18.095300000000002
 30
0.0
 10
-26.992900000000002
 20
18.095300000000002
 30
0.0
 10
-26.992900000000002
 20
18.095300000000002
 30
0.0
 10
-27.584900000000001
 20
17.081500000000002
 30
0.0
 10
-27.584900000000001
 20
17.081500000000002
 30
0.0
 10
-27.584900000000001
 20
17.081500000000002
 30
0.0
 10
-27.584900000000001
 20
17.081500000000002
 30
0.0
 10
-28.054100000000002
 20
16.005500000000001
 30
0.0
 10
-28.054100000000002
 20
16.005500000000001
 30
0.0
 10
-28.054100000000002
 20
16.005500000000001
 30
0.0
 10
-28.054100000000002
 20
16.005500000000001
 30
0.0
 10
-28.394200000000001
 20
14.881500000000001
 30
0.0
 10
-28.394200000000001
 20
14.881500000000001
 30
0.0
 10
-28.394200000000001
 20
14.881500000000001
 30
0.0
 10
-28.394200000000001
 20
14.881500000000001
 30
0.0
 10
-28.599800000000002
 20
13.725800000000001
 30
0.0
 10
-28.599800000000002
 20
13.725800000000001
 30
0.0
 10
-28.599800000000002
 20
13.725800000000001
 30
0.0
 10
-28.599800000000002
 20
13.725800000000001
 30
0.0
 10
-28.669
 20
12.553500000000001
 30
0.0
 10
-28.669
 20
12.553500000000001
 30
0.0
  0
SPLINE
  5
85
100
AcDbEntity
  8
Ebene 1
370
    35
100
AcDbSpline
210
0.0
220
0.0
230
1.0
 70
     0
 71
     3
 72
    12
 73
     8
 74
     0
 42
0.0000000001
 43
0.0000000001
 40
0.0
 40
0.0
 40
0.0
 40
0.0
 40
0.5
 40
0.5
 40
0.5
 40
0.5
 40
1.0
 40
1.0
 40
1.0
 40
1.0
 10
25.913900000000002
 20
22.436600000000002
 30
0.0
 10
25.913900000000002
 20
22.436600000000002
 30
0.0
 10
26.060600000000001
 20
22.363200000000003
 30
0.0
 10
26.060600000000001
 20
22.363200000000003
 30
0.0
 10
26.060600000000001
 20
22.363200000000003
 30
0.0
 10
26.060600000000001
 20
22.363200000000003
 30
0.0
 10
26.063100000000002
 20
22.321300000000001
 30
0.0
 10
26.063100000000002
 20
22.321300000000001
 30
0.0
  0
SPLINE
  5
86
100
AcDbEntity
  8
Ebene 1
370
    35
100
AcDbSpline
210
0.0
220
0.0
230
1.0
 70
     0
 71
     3
 72
     8
 73
     4
 74
     0
 42
0.0000000001
 43
0.0000000001
 40
0.0
 40
0.0
 40
0.0
 40
0.0
 40
1.0
 40
1.0
 40
1.0
 40
1.0
 10
25.913900000000002
 20
22.436600000000002
 30
0.0
 10
25.913900000000002
 20
22.436600000000002
 30
0.0
 10
25.150100000000002
 20
22.553700000000003
 30
0.0
 10
25.150100000000002
 20
22.553700000000003
 30
0.0
  0
SPLINE
  5
87
100
AcDbEntity
  8
Ebene 1
370
    35
100
AcDbSpline
210
0.0
220
0.0
230
1.0
 70
     0
 71
     3
 72
    60
 73
    56
 74
     0
 42
0.0000000001
 43
0.0000000001
 40
0.0
 40
0.0
 40
0.0
 40
0.0
 40
0.0714285714285714
 40
0.0714285714285714
 40
0.0714285714285714
 40
0.0714285714285714
 40
0.1428571428571429
 40
0.1428571428571429
 40
0.1428571428571429
 40
0.1428571428571429
 40
0.2142857142857143
 40
0.2142857142857143
 40
0.2142857142857143
 40
0.2142857142857143
 40
0.2857142857142857
 40
0.2857142857142857
 40
0.2857142857142857
 40
0.2857142857142857
 40
0.3571428571428571
 40
0.3571428571428571
 40
0.3571428571428571
 40
0.3571428571428571
 40
0.4285714285714285
 40
0.4285714285714285
 40
0.4285714285714285
 40
0.4285714285714285
 40
0.4999999999999999
 40
0.4999999999999999
 40
0.4999999999999999
 40
0.4999999999999999
 40
0.5714285714285713
 40
0.5714285714285713
 40
0.5714285714285713
 40
0.5714285714285713
 40
0.6428571428571427
 40
0.6428571428571427
 40
0.6428571428571427
 40
0.6428571428571427
 40
0.7142857142857141
 40
0.7142857142857141
 40
0.7142857142857141
 40
0.7142857142857141
 40
0.7857142857142855
 40
0.7857142857142855
 40
0.7857142857142855
 40
0.7857142857142855
 40
0.8571428571428569
 40
0.8571428571428569
 40
0.8571428571428569
 40
0.8571428571428569
 40
0.9285714285714283
 40
0.9285714285714283
 40
0.9285714285714283
 40
0.9285714285714283
 40
1.0
 40
1.0
 40
1.0
 40
1.0
 10
48.331099999999999
 20
12.553500000000001
 30
0.0
 10
48.331099999999999
 20
12.553500000000001
 30
0.0
 10
48.268300000000004
 20
13.673300000000001
 30
0.0
 10
48.268300000000004
 20
13.673300000000001
 30
0.0
 10
48.268300000000004
 20
13.673300000000001
 30
0.0
 10
48.268300000000004
 20
13.673300000000001
 30
0.0
 10
48.080300000000001
 20
14.7789
 30
0.0
 10
48.080300000000001
 20
14.7789
 30
0.0
 10
48.080300000000001
 20
14.7789
 30
0.0
 10
48.080300000000001
 20
14.7789
 30
0.0
 10
47.7699
 20
15.8566
 30
0.0
 10
47.7699
 20
15.8566
 30
0.0
 10
47.7699
 20
15.8566
 30
0.0
 10
47.7699
 20
15.8566
 30
0.0
 10
47.340900000000005
 20
16.892400000000002
 30
0.0
 10
47.340900000000005
 20
16.892400000000002
 30
0.0
 10
47.340900000000005
 20
16.892400000000002
 30
0.0
 10
47.340900000000005
 20
16.892400000000002
 30
0.0
 10
46.798300000000005
 20
17.873799999999999
 30
0.0
 10
46.798300000000005
 20
17.873799999999999
 30
0.0
 10
46.798300000000005
 20
17.873799999999999
 30
0.0
 10
46.798300000000005
 20
17.873799999999999
 30
0.0
 10
46.149500000000003
 20
18.788500000000003
 30
0.0
 10
46.149500000000003
 20
18.788500000000003
 30
0.0
 10
46.149500000000003
 20
18.788500000000003
 30
0.0
 10
46.149500000000003
 20
18.788500000000003
 30
0.0
 10
45.4024
 20
19.624600000000001
 30
0.0
 10
45.4024
 20
19.624600000000001
 30
0.0
 10
45.4024
 20
19.624600000000001
 30
0.0
 10
45.4024
 20
19.624600000000001
 30
0.0
 10
44.565899999999999
 20
20.3718
 30
0.0
 10
44.565899999999999
 20
20.3718
 30
0.0
 10
44.565899999999999
 20
20.3718
 30
0.0
 10
44.565899999999999
 20
20.3718
 30
0.0
 10
43.651499999999999
 20
21.020900000000001
 30
0.0
 10
43.651499999999999
 20
21.020900000000001
 30
0.0
 10
43.651499999999999
 20
21.020900000000001
 30
0.0
 10
43.651499999999999
 20
21.020900000000001
 30
0.0
 10
42.670100000000005
 20
21.563500000000001
 30
0.0
 10
42.670100000000005
 20
21.563500000000001
 30
0.0
 10
42.670100000000005
 20
21.563500000000001
 30
0.0
 10
42.670100000000005
 20
21.563500000000001
 30
0.0
 10
41.634
 20
21.9925
 30
0.0
 10
41.634
 20
21.9925
 30
0.0
 10
41.634
 20
21.9925
 30
0.0
 10
41.634
 20
21.9925
 30
0.0
 10
40.5563
 20
22.302900000000001
 30
0.0
 10
40.5563
 20
22.302900000000001
 30
0.0
 10
40.5563
 20
22.302900000000001
 30
0.0
 10
40.5563
 20
22.302900000000001
 30
0.0
 10
39.450600000000001
 20
22.490600000000001
 30
0.0
 10
39.450600000000001
 20
22.490600000000001
 30
0.0
 10
39.450600000000001
 20
22.490600000000001
 30
0.0
 10
39.450600000000001
 20
22.490600000000001
 30
0.0
 10
38.331299999999999
 20
22.553700000000003
 30
0.0
 10
38.331299999999999
 20
22.553700000000003
 30
0.0
  0
SPLINE
  5
88
100
AcDbEntity
  8
Ebene 1
370
    35
100
AcDbSpline
210
0.0
220
0.0
230
1.0
 70
     0
 71
     3
 72
     8
 73
     4
 74
     0
 42
0.0000000001
 43
0.0000000001
 40
0.0
 40
0.0
 40
0.0
 40
0.0
 40
1.0
 40
1.0
 40
1.0
 40
1.0
 10
19.581099999999999
 20
25.553800000000003
 30
0.0
 10
19.581099999999999
 20
25.553800000000003
 30
0.0
 10
19.581099999999999
 20
24.553599999999999
 30
0.0
 10
19.581099999999999
 20
24.553599999999999
 30
0.0
  0
SPLINE
  5
89
100
AcDbEntity
  8
Ebene 1
370
    35
100
AcDbSpline
210
0.0
220
0.0
230
1.0
 70
     0
 71
     3
 72
    44
 73
    40
 74
     0
 42
0.0000000001
 43
0.0000000001
 40
0.0
 40
0.0
 40
0.0
 40
0.0
 40
0.1
 40
0.1
 40
0.1
 40
0.1
 40
0.2
 40
0.2
 40
0.2
 40
0.2
 40
0.3
 40
0.3
 40
0.3
 40
0.3
 40
0.4
 40
0.4
 40
0.4
 40
0.4
 40
0.5
 40
0.5
 40
0.5
 40
0.5
 40
0.6
 40
0.6
 40
0.6
 40
0.6
 40
0.7
 40
0.7
 40
0.7
 40
0.7
 40
0.7999999999999999
 40
0.7999999999999999
 40
0.7999999999999999
 40
0.7999999999999999
 40
0.8999999999999999
 40
0.8999999999999999
 40
0.8999999999999999
 40
0.8999999999999999
 40
1.0
 40
1.0
 40
1.0
 40
1.0
 10
14.581200000000001
 20
30.553700000000003
 30
0.0
 10
14.581200000000001
 20
30.553700000000003
 30
0.0
 10
15.363300000000001
 20
30.491900000000001
 30
0.0
 10
15.363300000000001
 20
30.491900000000001
 30
0.0
 10
15.363300000000001
 20
30.491900000000001
 30
0.0
 10
15.363300000000001
 20
30.491900000000001
 30
0.0
 10
16.1264
 20
30.308900000000001
 30
0.0
 10
16.1264
 20
30.308900000000001
 30
0.0
 10
16.1264
 20
30.308900000000001
 30
0.0
 10
16.1264
 20
30.308900000000001
 30
0.0
 10
16.850999999999999
 20
30.008600000000001
 30
0.0
 10
16.850999999999999
 20
30.008600000000001
 30
0.0
 10
16.850999999999999
 20
30.008600000000001
 30
0.0
 10
16.850999999999999
 20
30.008600000000001
 30
0.0
 10
17.520199999999999
 20
29.598700000000001
 30
0.0
 10
17.520199999999999
 20
29.598700000000001
 30
0.0
 10
17.520199999999999
 20
29.598700000000001
 30
0.0
 10
17.520199999999999
 20
29.598700000000001
 30
0.0
 10
18.116800000000001
 20
29.089300000000001
 30
0.0
 10
18.116800000000001
 20
29.089300000000001
 30
0.0
 10
18.116800000000001
 20
29.089300000000001
 30
0.0
 10
18.116800000000001
 20
29.089300000000001
 30
0.0
 10
18.626200000000001
 20
28.4924
 30
0.0
 10
18.626200000000001
 20
28.4924
 30
0.0
 10
18.626200000000001
 20
28.4924
 30
0.0
 10
18.626200000000001
 20
28.4924
 30
0.0
 10
19.036100000000001
 20
27.823500000000003
 30
0.0
 10
19.036100000000001
 20
27.823500000000003
 30
0.0
 10
19.036100000000001
 20
27.823500000000003
 30
0.0
 10
19.036100000000001
 20
27.823500000000003
 30
0.0
 10
19.336300000000001
 20
27.098600000000001
 30
0.0
 10
19.336300000000001
 20
27.098600000000001
 30
0.0
 10
19.336300000000001
 20
27.098600000000001
 30
0.0
 10
19.336300000000001
 20
27.098600000000001
 30
0.0
 10
19.5198
 20
26.335900000000002
 30
0.0
 10
19.5198
 20
26.335900000000002
 30
0.0
 10
19.5198
 20
26.335900000000002
 30
0.0
 10
19.5198
 20
26.335900000000002
 30
0.0
 10
19.581099999999999
 20
25.553800000000003
 30
0.0
 10
19.581099999999999
 20
25.553800000000003
 30
0.0
  0
SPLINE
  5
8A
100
AcDbEntity
  8
Ebene 1
370
    35
100
AcDbSpline
210
0.0
220
0.0
230
1.0
 70
     0
 71
     3
 72
     8
 73
     4
 74
     0
 42
0.0000000001
 43
0.0000000001
 40
0.0
 40
0.0
 40
0.0
 40
0.0
 40
1.0
 40
1.0
 40
1.0
 40
1.0
 10
5.0813000000000006
 20
30.553700000000003
 30
0.0
 10
5.0813000000000006
 20
30.553700000000003
 30
0.0
 10
14.581200000000001
 20
30.553700000000003
 30
0.0
 10
14.581200000000001
 20
30.553700000000003
 30
0.0
  0
SPLINE
  5
8B
100
AcDbEntity
  8
Ebene 1
370
    35
100
AcDbSpline
210
0.0
220
0.0
230
1.0
 70
     0
 71
     3
 72
    44
 73
    40
 74
     0
 42
0.0000000001
 43
0.0000000001
 40
0.0
 40
0.0
 40
0.0
 40
0.0
 40
0.1
 40
0.1
 40
0.1
 40
0.1
 40
0.2
 40
0.2
 40
0.2
 40
0.2
 40
0.3
 40
0.3
 40
0.3
 40
0.3
 40
0.4
 40
0.4
 40
0.4
 40
0.4
 40
0.5
 40
0.5
 40
0.5
 40
0.5
 40
0.6
 40
0.6
 40
0.6
 40
0.6
 40
0.7
 40
0.7
 40
0.7
 40
0.7
 40
0.7999999999999999
 40
0.7999999999999999
 40
0.7999999999999999
 40
0.7999999999999999
 40
0.8999999999999999
 40
0.8999999999999999
 40
0.8999999999999999
 40
0.8999999999999999
 40
1.0
 40
1.0
 40
1.0
 40
1.0
 10
0.0814
 20
25.553800000000003
 30
0.0
 10
0.0814
 20
25.553800000000003
 30
0.0
 10
0.1427
 20
26.335900000000002
 30
0.0
 10
0.1427
 20
26.335900000000002
 30
0.0
 10
0.1427
 20
26.335900000000002
 30
0.0
 10
0.1427
 20
26.335900000000002
 30
0.0
 10
0.3258
 20
27.098600000000001
 30
0.0
 10
0.3258
 20
27.098600000000001
 30
0.0
 10
0.3258
 20
27.098600000000001
 30
0.0
 10
0.3258
 20
27.098600000000001
 30
0.0
 10
0.626
 20
27.823500000000003
 30
0.0
 10
0.626
 20
27.823500000000003
 30
0.0
 10
0.626
 20
27.823500000000003
 30
0.0
 10
0.626
 20
27.823500000000003
 30
0.0
 10
1.036
 20
28.4924
 30
0.0
 10
1.036
 20
28.4924
 30
0.0
 10
1.036
 20
28.4924
 30
0.0
 10
1.036
 20
28.4924
 30
0.0
 10
1.5457000000000001
 20
29.089300000000001
 30
0.0
 10
1.5457000000000001
 20
29.089300000000001
 30
0.0
 10
1.5457000000000001
 20
29.089300000000001
 30
0.0
 10
1.5457000000000001
 20
29.089300000000001
 30
0.0
 10
2.1423000000000001
 20
29.598700000000001
 30
0.0
 10
2.1423000000000001
 20
29.598700000000001
 30
0.0
 10
2.1423000000000001
 20
29.598700000000001
 30
0.0
 10
2.1423000000000001
 20
29.598700000000001
 30
0.0
 10
2.8111000000000002
 20
30.008600000000001
 30
0.0
 10
2.8111000000000002
 20
30.008600000000001
 30
0.0
 10
2.8111000000000002
 20
30.008600000000001
 30
0.0
 10
2.8111000000000002
 20
30.008600000000001
 30
0.0
 10
3.5361000000000002
 20
30.308900000000001
 30
0.0
 10
3.5361000000000002
 20
30.308900000000001
 30
0.0
 10
3.5361000000000002
 20
30.308900000000001
 30
0.0
 10
3.5361000000000002
 20
30.308900000000001
 30
0.0
 10
4.2991999999999999
 20
30.491900000000001
 30
0.0
 10
4.2991999999999999
 20
30.491900000000001
 30
0.0
 10
4.2991999999999999
 20
30.491900000000001
 30
0.0
 10
4.2991999999999999
 20
30.491900000000001
 30
0.0
 10
5.0813000000000006
 20
30.553700000000003
 30
0.0
 10
5.0813000000000006
 20
30.553700000000003
 30
0.0
  0
SPLINE
  5
8C
100
AcDbEntity
  8
Ebene 1
370
    35
100
AcDbSpline
210
0.0
220
0.0
230
1.0
 70
     0
 71
     3
 72
     8
 73
     4
 74
     0
 42
0.0000000001
 43
0.0000000001
 40
0.0
 40
0.0
 40
0.0
 40
0.0
 40
1.0
 40
1.0
 40
1.0
 40
1.0
 10
0.0814
 20
25.553800000000003
 30
0.0
 10
0.0814
 20
25.553800000000003
 30
0.0
 10
0.0814
 20
24.553599999999999
 30
0.0
 10
0.0814
 20
24.553599999999999
 30
0.0
  0
SPLINE
  5
8D
100
AcDbEntity
  8
Ebene 1
370
    35
100
AcDbSpline
210
0.0
220
0.0
230
1.0
 70
     0
 71
     3
 72
     8
 73
     4
 74
     0
 42
0.0000000001
 43
0.0000000001
 40
0.0
 40
0.0
 40
0.0
 40
0.0
 40
1.0
 40
1.0
 40
1.0
 40
1.0
 10
0.0814
 20
24.553599999999999
 30
0.0
 10
0.0814
 20
24.553599999999999
 30
0.0
 10
19.581099999999999
 20
24.553599999999999
 30
0.0
 10
19.581099999999999
 20
24.553599999999999
 30
0.0
  0
SPLINE
  5
8E
100
AcDbEntity
  8
Ebene 1
370
    35
100
AcDbSpline
210
0.0
220
0.0
230
1.0
 70
     0
 71
     3
 72
     8
 73
     4
 74
     0
 42
0.0000000001
 43
0.0000000001
 40
0.0
 40
0.0
 40
0.0
 40
0.0
 40
1.0
 40
1.0
 40
1.0
 40
1.0
 10
-28.669
 20
12.553500000000001
 30
0.0
 10
-28.669
 20
12.553500000000001
 30
0.0
 10
-28.669
 20
-40.446400000000004
 30
0.0
 10
-28.669
 20
-40.446400000000004
 30
0.0
  0
SPLINE
  5
8F
100
AcDbEntity
  8
Ebene 1
370
    35
100
AcDbSpline
210
0.0
220
0.0
230
1.0
 70
     0
 71
     3
 72
     8
 73
     4
 74
     0
 42
0.0000000001
 43
0.0000000001
 40
0.0
 40
0.0
 40
0.0
 40
0.0
 40
1.0
 40
1.0
 40
1.0
 40
1.0
 10
-28.669
 20
-40.446400000000004
 30
0.0
 10
-28.669
 20
-40.446400000000004
 30
0.0
 10
-29.668800000000001
 20
-40.446400000000004
 30
0.0
 10
-29.668800000000001
 20
-40.446400000000004
 30
0.0
  0
SPLINE
  5
90
100
AcDbEntity
  8
Ebene 1
370
    35
100
AcDbSpline
210
0.0
220
0.0
230
1.0
 70
     0
 71
     3
 72
     8
 73
     4
 74
     0
 42
0.0000000001
 43
0.0000000001
 40
0.0
 40
0.0
 40
0.0
 40
0.0
 40
1.0
 40
1.0
 40
1.0
 40
1.0
 10
-29.668800000000001
 20
-40.446400000000004
 30
0.0
 10
-29.668800000000001
 20
-40.446400000000004
 30
0.0
 10
-29.668800000000001
 20
12.553500000000001
 30
0.0
 10
-29.668800000000001
 20
12.553500000000001
 30
0.0
  0
SPLINE
  5
91
100
AcDbEntity
  8
Ebene 1
370
    35
100
AcDbSpline
210
0.0
220
0.0
230
1.0
 70
     0
 71
     3
 72
    64
 73
    60
 74
     0
 42
0.0000000001
 43
0.0000000001
 40
0.0
 40
0.0
 40
0.0
 40
0.0
 40
0.0666666666666667
 40
0.0666666666666667
 40
0.0666666666666667
 40
0.0666666666666667
 40
0.1333333333333333
 40
0.1333333333333333
 40
0.1333333333333333
 40
0.1333333333333333
 40
0.2
 40
0.2
 40
0.2
 40
0.2
 40
0.2666666666666667
 40
0.2666666666666667
 40
0.2666666666666667
 40
0.2666666666666667
 40
0.3333333333333333
 40
0.3333333333333333
 40
0.3333333333333333
 40
0.3333333333333333
 40
0.4
 40
0.4
 40
0.4
 40
0.4
 40
0.4666666666666666
 40
0.4666666666666666
 40
0.4666666666666666
 40
0.4666666666666666
 40
0.5333333333333333
 40
0.5333333333333333
 40
0.5333333333333333
 40
0.5333333333333333
 40
0.6
 40
0.6
 40
0.6
 40
0.6
 40
0.6666666666666666
 40
0.6666666666666666
 40
0.6666666666666666
 40
0.6666666666666666
 40
0.7333333333333333
 40
0.7333333333333333
 40
0.7333333333333333
 40
0.7333333333333333
 40
0.7999999999999999
 40
0.7999999999999999
 40
0.7999999999999999
 40
0.7999999999999999
 40
0.8666666666666666
 40
0.8666666666666666
 40
0.8666666666666666
 40
0.8666666666666666
 40
0.9333333333333332
 40
0.9333333333333332
 40
0.9333333333333332
 40
0.9333333333333332
 40
1.0
 40
1.0
 40
1.0
 40
1.0
 10
-29.668800000000001
 20
12.553500000000001
 30
0.0
 10
-29.668800000000001
 20
12.553500000000001
 30
0.0
 10
-29.603100000000001
 20
13.808
 30
0.0
 10
-29.603100000000001
 20
13.808
 30
0.0
 10
-29.603100000000001
 20
13.808
 30
0.0
 10
-29.603100000000001
 20
13.808
 30
0.0
 10
-29.406600000000001
 20
15.0487
 30
0.0
 10
-29.406600000000001
 20
15.0487
 30
0.0
 10
-29.406600000000001
 20
15.0487
 30
0.0
 10
-29.406600000000001
 20
15.0487
 30
0.0
 10
-29.081400000000002
 20
16.261900000000001
 30
0.0
 10
-29.081400000000002
 20
16.261900000000001
 30
0.0
 10
-29.081400000000002
 20
16.261900000000001
 30
0.0
 10
-29.081400000000002
 20
16.261900000000001
 30
0.0
 10
-28.6312
 20
17.4346
 30
0.0
 10
-28.6312
 20
17.4346
 30
0.0
 10
-28.6312
 20
17.4346
 30
0.0
 10
-28.6312
 20
17.4346
 30
0.0
 10
-28.0611
 20
18.553599999999999
 30
0.0
 10
-28.0611
 20
18.553599999999999
 30
0.0
 10
-28.0611
 20
18.553599999999999
 30
0.0
 10
-28.0611
 20
18.553599999999999
 30
0.0
 10
-27.377100000000002
 20
19.606999999999999
 30
0.0
 10
-27.377100000000002
 20
19.606999999999999
 30
0.0
 10
-27.377100000000002
 20
19.606999999999999
 30
0.0
 10
-27.377100000000002
 20
19.606999999999999
 30
0.0
 10
-26.586500000000001
 20
20.583100000000002
 30
0.0
 10
-26.586500000000001
 20
20.583100000000002
 30
0.0
 10
-26.586500000000001
 20
20.583100000000002
 30
0.0
 10
-26.586500000000001
 20
20.583100000000002
 30
0.0
 10
-25.6982
 20
21.471400000000003
 30
0.0
 10
-25.6982
 20
21.471400000000003
 30
0.0
 10
-25.6982
 20
21.471400000000003
 30
0.0
 10
-25.6982
 20
21.471400000000003
 30
0.0
 10
-24.722100000000001
 20
22.262
 30
0.0
 10
-24.722100000000001
 20
22.262
 30
0.0
 10
-24.722100000000001
 20
22.262
 30
0.0
 10
-24.722100000000001
 20
22.262
 30
0.0
 10
-23.668700000000001
 20
22.946000000000002
 30
0.0
 10
-23.668700000000001
 20
22.946000000000002
 30
0.0
 10
-23.668700000000001
 20
22.946000000000002
 30
0.0
 10
-23.668700000000001
 20
22.946000000000002
 30
0.0
 10
-22.549700000000001
 20
23.516100000000002
 30
0.0
 10
-22.549700000000001
 20
23.516100000000002
 30
0.0
 10
-22.549700000000001
 20
23.516100000000002
 30
0.0
 10
-22.549700000000001
 20
23.516100000000002
 30
0.0
 10
-21.377100000000002
 20
23.9663
 30
0.0
 10
-21.377100000000002
 20
23.9663
 30
0.0
 10
-21.377100000000002
 20
23.9663
 30
0.0
 10
-21.377100000000002
 20
23.9663
 30
0.0
 10
-20.163900000000002
 20
24.291500000000003
 30
0.0
 10
-20.163900000000002
 20
24.291500000000003
 30
0.0
 10
-20.163900000000002
 20
24.291500000000003
 30
0.0
 10
-20.163900000000002
 20
24.291500000000003
 30
0.0
 10
-18.923100000000002
 20
24.488
 30
0.0
 10
-18.923100000000002
 20
24.488
 30
0.0
 10
-18.923100000000002
 20
24.488
 30
0.0
 10
-18.923100000000002
 20
24.488
 30
0.0
 10
-17.668700000000001
 20
24.553599999999999
 30
0.0
 10
-17.668700000000001
 20
24.553599999999999
 30
0.0
  0
SPLINE
  5
92
100
AcDbEntity
  8
Ebene 1
370
    35
100
AcDbSpline
210
0.0
220
0.0
230
1.0
 70
     0
 71
     3
 72
     8
 73
     4
 74
     0
 42
0.0000000001
 43
0.0000000001
 40
0.0
 40
0.0
 40
0.0
 40
0.0
 40
1.0
 40
1.0
 40
1.0
 40
1.0
 10
-17.668700000000001
 20
24.553599999999999
 30
0.0
 10
-17.668700000000001
 20
24.553599999999999
 30
0.0
 10
-3.9188000000000001
 20
24.553599999999999
 30
0.0
 10
-3.9188000000000001
 20
24.553599999999999
 30
0.0
  0
SPLINE
  5
93
100
AcDbEntity
  8
Ebene 1
370
    35
100
AcDbSpline
210
0.0
220
0.0
230
1.0
 70
     0
 71
     3
 72
     8
 73
     4
 74
     0
 42
0.0000000001
 43
0.0000000001
 40
0.0
 40
0.0
 40
0.0
 40
0.0
 40
1.0
 40
1.0
 40
1.0
 40
1.0
 10
-3.9188000000000001
 20
24.553599999999999
 30
0.0
 10
-3.9188000000000001
 20
24.553599999999999
 30
0.0
 10
-3.9188000000000001
 20
25.553800000000003
 30
0.0
 10
-3.9188000000000001
 20
25.553800000000003
 30
0.0
  0
SPLINE
  5
94
100
AcDbEntity
  8
Ebene 1
370
    35
100
AcDbSpline
210
0.0
220
0.0
230
1.0
 70
     0
 71
     3
 72
    56
 73
    52
 74
     0
 42
0.0000000001
 43
0.0000000001
 40
0.0
 40
0.0
 40
0.0
 40
0.0
 40
0.0769230769230769
 40
0.0769230769230769
 40
0.0769230769230769
 40
0.0769230769230769
 40
0.1538461538461539
 40
0.1538461538461539
 40
0.1538461538461539
 40
0.1538461538461539
 40
0.2307692307692308
 40
0.2307692307692308
 40
0.2307692307692308
 40
0.2307692307692308
 40
0.3076923076923077
 40
0.3076923076923077
 40
0.3076923076923077
 40
0.3076923076923077
 40
0.3846153846153846
 40
0.3846153846153846
 40
0.3846153846153846
 40
0.3846153846153846
 40
0.4615384615384616
 40
0.4615384615384616
 40
0.4615384615384616
 40
0.4615384615384616
 40
0.5384615384615386
 40
0.5384615384615386
 40
0.5384615384615386
 40
0.5384615384615386
 40
0.6153846153846154
 40
0.6153846153846154
 40
0.6153846153846154
 40
0.6153846153846154
 40
0.6923076923076923
 40
0.6923076923076923
 40
0.6923076923076923
 40
0.6923076923076923
 40
0.7692307692307692
 40
0.7692307692307692
 40
0.7692307692307692
 40
0.7692307692307692
 40
0.846153846153846
 40
0.846153846153846
 40
0.846153846153846
 40
0.846153846153846
 40
0.9230769230769229
 40
0.9230769230769229
 40
0.9230769230769229
 40
0.9230769230769229
 40
1.0
 40
1.0
 40
1.0
 40
1.0
 10
5.0813000000000006
 20
34.5535
 30
0.0
 10
5.0813000000000006
 20
34.5535
 30
0.0
 10
3.9965000000000002
 20
34.488199999999999
 30
0.0
 10
3.9965000000000002
 20
34.488199999999999
 30
0.0
 10
3.9965000000000002
 20
34.488199999999999
 30
0.0
 10
3.9965000000000002
 20
34.488199999999999
 30
0.0
 10
2.9272
 20
34.292100000000005
 30
0.0
 10
2.9272
 20
34.292100000000005
 30
0.0
 10
2.9272
 20
34.292100000000005
 30
0.0
 10
2.9272
 20
34.292100000000005
 30
0.0
 10
1.8897000000000002
 20
33.968900000000005
 30
0.0
 10
1.8897000000000002
 20
33.968900000000005
 30
0.0
 10
1.8897000000000002
 20
33.968900000000005
 30
0.0
 10
1.8897000000000002
 20
33.968900000000005
 30
0.0
 10
0.8987000000000001
 20
33.5227
 30
0.0
 10
0.8987000000000001
 20
33.5227
 30
0.0
 10
0.8987000000000001
 20
33.5227
 30
0.0
 10
0.8987000000000001
 20
33.5227
 30
0.0
 10
-0.0315
 20
32.960300000000004
 30
0.0
 10
-0.0315
 20
32.960300000000004
 30
0.0
 10
-0.0315
 20
32.960300000000004
 30
0.0
 10
-0.0315
 20
32.960300000000004
 30
0.0
 10
-0.887
 20
32.290399999999998
 30
0.0
 10
-0.887
 20
32.290399999999998
 30
0.0
 10
-0.887
 20
32.290399999999998
 30
0.0
 10
-0.887
 20
32.290399999999998
 30
0.0
 10
-1.6554
 20
31.521700000000003
 30
0.0
 10
-1.6554
 20
31.521700000000003
 30
0.0
 10
-1.6554
 20
31.521700000000003
 30
0.0
 10
-1.6554
 20
31.521700000000003
 30
0.0
 10
-2.3256000000000001
 20
30.6662
 30
0.0
 10
-2.3256000000000001
 20
30.6662
 30
0.0
 10
-2.3256000000000001
 20
30.6662
 30
0.0
 10
-2.3256000000000001
 20
30.6662
 30
0.0
 10
-2.8880000000000003
 20
29.7363
 30
0.0
 10
-2.8880000000000003
 20
29.7363
 30
0.0
 10
-2.8880000000000003
 20
29.7363
 30
0.0
 10
-2.8880000000000003
 20
29.7363
 30
0.0
 10
-3.3339000000000003
 20
28.745000000000001
 30
0.0
 10
-3.3339000000000003
 20
28.745000000000001
 30
0.0
 10
-3.3339000000000003
 20
28.745000000000001
 30
0.0
 10
-3.3339000000000003
 20
28.745000000000001
 30
0.0
 10
-3.6574
 20
27.7075
 30
0.0
 10
-3.6574
 20
27.7075
 30
0.0
 10
-3.6574
 20
27.7075
 30
0.0
 10
-3.6574
 20
27.7075
 30
0.0
 10
-3.8532000000000002
 20
26.6386
 30
0.0
 10
-3.8532000000000002
 20
26.6386
 30
0.0
 10
-3.8532000000000002
 20
26.6386
 30
0.0
 10
-3.8532000000000002
 20
26.6386
 30
0.0
 10
-3.9188000000000001
 20
25.553800000000003
 30
0.0
 10
-3.9188000000000001
 20
25.553800000000003
 30
0.0
  0
SPLINE
  5
95
100
AcDbEntity
  8
Ebene 1
370
    35
100
AcDbSpline
210
0.0
220
0.0
230
1.0
 70
     0
 71
     3
 72
     8
 73
     4
 74
     0
 42
0.0000000001
 43
0.0000000001
 40
0.0
 40
0.0
 40
0.0
 40
0.0
 40
1.0
 40
1.0
 40
1.0
 40
1.0
 10
14.581200000000001
 20
34.5535
 30
0.0
 10
14.581200000000001
 20
34.5535
 30
0.0
 10
5.0813000000000006
 20
34.5535
 30
0.0
 10
5.0813000000000006
 20
34.5535
 30
0.0
  0
SPLINE
  5
96
100
AcDbEntity
  8
Ebene 1
370
    35
100
AcDbSpline
210
0.0
220
0.0
230
1.0
 70
     0
 71
     3
 72
    56
 73
    52
 74
     0
 42
0.0000000001
 43
0.0000000001
 40
0.0
 40
0.0
 40
0.0
 40
0.0
 40
0.0769230769230769
 40
0.0769230769230769
 40
0.0769230769230769
 40
0.0769230769230769
 40
0.1538461538461539
 40
0.1538461538461539
 40
0.1538461538461539
 40
0.1538461538461539
 40
0.2307692307692308
 40
0.2307692307692308
 40
0.2307692307692308
 40
0.2307692307692308
 40
0.3076923076923077
 40
0.3076923076923077
 40
0.3076923076923077
 40
0.3076923076923077
 40
0.3846153846153846
 40
0.3846153846153846
 40
0.3846153846153846
 40
0.3846153846153846
 40
0.4615384615384616
 40
0.4615384615384616
 40
0.4615384615384616
 40
0.4615384615384616
 40
0.5384615384615386
 40
0.5384615384615386
 40
0.5384615384615386
 40
0.5384615384615386
 40
0.6153846153846154
 40
0.6153846153846154
 40
0.6153846153846154
 40
0.6153846153846154
 40
0.6923076923076923
 40
0.6923076923076923
 40
0.6923076923076923
 40
0.6923076923076923
 40
0.7692307692307692
 40
0.7692307692307692
 40
0.7692307692307692
 40
0.7692307692307692
 40
0.846153846153846
 40
0.846153846153846
 40
0.846153846153846
 40
0.846153846153846
 40
0.9230769230769229
 40
0.9230769230769229
 40
0.9230769230769229
 40
0.9230769230769229
 40
1.0
 40
1.0
 40
1.0
 40
1.0
 10
23.581300000000002
 20
25.553800000000003
 30
0.0
 10
23.581300000000002
 20
25.553800000000003
 30
0.0
 10
23.515700000000002
 20
26.6386
 30
0.0
 10
23.515700000000002
 20
26.6386
 30
0.0
 10
23.515700000000002
 20
26.6386
 30
0.0
 10
23.515700000000002
 20
26.6386
 30
0.0
 10
23.319500000000001
 20
27.7075
 30
0.0
 10
23.319500000000001
 20
27.7075
 30
0.0
 10
23.319500000000001
 20
27.7075
 30
0.0
 10
23.319500000000001
 20
27.7075
 30
0.0
 10
22.996400000000001
 20
28.745000000000001
 30
0.0
 10
22.996400000000001
 20
28.745000000000001
 30
0.0
 10
22.996400000000001
 20
28.745000000000001
 30
0.0
 10
22.996400000000001
 20
28.745000000000001
 30
0.0
 10
22.5501
 20
29.7363
 30
0.0
 10
22.5501
 20
29.7363
 30
0.0
 10
22.5501
 20
29.7363
 30
0.0
 10
22.5501
 20
29.7363
 30
0.0
 10
21.988099999999999
 20
30.6662
 30
0.0
 10
21.988099999999999
 20
30.6662
 30
0.0
 10
21.988099999999999
 20
30.6662
 30
0.0
 10
21.988099999999999
 20
30.6662
 30
0.0
 10
21.317900000000002
 20
31.521700000000003
 30
0.0
 10
21.317900000000002
 20
31.521700000000003
 30
0.0
 10
21.317900000000002
 20
31.521700000000003
 30
0.0
 10
21.317900000000002
 20
31.521700000000003
 30
0.0
 10
20.549200000000003
 20
32.290399999999998
 30
0.0
 10
20.549200000000003
 20
32.290399999999998
 30
0.0
 10
20.549200000000003
 20
32.290399999999998
 30
0.0
 10
20.549200000000003
 20
32.290399999999998
 30
0.0
 10
19.6937
 20
32.960300000000004
 30
0.0
 10
19.6937
 20
32.960300000000004
 30
0.0
 10
19.6937
 20
32.960300000000004
 30
0.0
 10
19.6937
 20
32.960300000000004
 30
0.0
 10
18.7638
 20
33.5227
 30
0.0
 10
18.7638
 20
33.5227
 30
0.0
 10
18.7638
 20
33.5227
 30
0.0
 10
18.7638
 20
33.5227
 30
0.0
 10
17.772500000000001
 20
33.968900000000005
 30
0.0
 10
17.772500000000001
 20
33.968900000000005
 30
0.0
 10
17.772500000000001
 20
33.968900000000005
 30
0.0
 10
17.772500000000001
 20
33.968900000000005
 30
0.0
 10
16.7349
 20
34.292100000000005
 30
0.0
 10
16.7349
 20
34.292100000000005
 30
0.0
 10
16.7349
 20
34.292100000000005
 30
0.0
 10
16.7349
 20
34.292100000000005
 30
0.0
 10
15.666
 20
34.488199999999999
 30
0.0
 10
15.666
 20
34.488199999999999
 30
0.0
 10
15.666
 20
34.488199999999999
 30
0.0
 10
15.666
 20
34.488199999999999
 30
0.0
 10
14.581200000000001
 20
34.5535
 30
0.0
 10
14.581200000000001
 20
34.5535
 30
0.0
  0
SPLINE
  5
97
100
AcDbEntity
  8
Ebene 1
370
    35
100
AcDbSpline
210
0.0
220
0.0
230
1.0
 70
     0
 71
     3
 72
     8
 73
     4
 74
     0
 42
0.0000000001
 43
0.0000000001
 40
0.0
 40
0.0
 40
0.0
 40
0.0
 40
1.0
 40
1.0
 40
1.0
 40
1.0
 10
23.581300000000002
 20
24.553599999999999
 30
0.0
 10
23.581300000000002
 20
24.553599999999999
 30
0.0
 10
23.581300000000002
 20
25.553800000000003
 30
0.0
 10
23.581300000000002
 20
25.553800000000003
 30
0.0
  0
SPLINE
  5
98
100
AcDbEntity
  8
Ebene 1
370
    35
100
AcDbSpline
210
0.0
220
0.0
230
1.0
 70
     0
 71
     3
 72
     8
 73
     4
 74
     0
 42
0.0000000001
 43
0.0000000001
 40
0.0
 40
0.0
 40
0.0
 40
0.0
 40
1.0
 40
1.0
 40
1.0
 40
1.0
 10
23.581300000000002
 20
24.553599999999999
 30
0.0
 10
23.581300000000002
 20
24.553599999999999
 30
0.0
 10
37.331200000000003
 20
24.553599999999999
 30
0.0
 10
37.331200000000003
 20
24.553599999999999
 30
0.0
  0
SPLINE
  5
99
100
AcDbEntity
  8
Ebene 1
370
    35
100
AcDbSpline
210
0.0
220
0.0
230
1.0
 70
     0
 71
     3
 72
    64
 73
    60
 74
     0
 42
0.0000000001
 43
0.0000000001
 40
0.0
 40
0.0
 40
0.0
 40
0.0
 40
0.0666666666666667
 40
0.0666666666666667
 40
0.0666666666666667
 40
0.0666666666666667
 40
0.1333333333333333
 40
0.1333333333333333
 40
0.1333333333333333
 40
0.1333333333333333
 40
0.2
 40
0.2
 40
0.2
 40
0.2
 40
0.2666666666666667
 40
0.2666666666666667
 40
0.2666666666666667
 40
0.2666666666666667
 40
0.3333333333333333
 40
0.3333333333333333
 40
0.3333333333333333
 40
0.3333333333333333
 40
0.4
 40
0.4
 40
0.4
 40
0.4
 40
0.4666666666666666
 40
0.4666666666666666
 40
0.4666666666666666
 40
0.4666666666666666
 40
0.5333333333333333
 40
0.5333333333333333
 40
0.5333333333333333
 40
0.5333333333333333
 40
0.6
 40
0.6
 40
0.6
 40
0.6
 40
0.6666666666666666
 40
0.6666666666666666
 40
0.6666666666666666
 40
0.6666666666666666
 40
0.7333333333333333
 40
0.7333333333333333
 40
0.7333333333333333
 40
0.7333333333333333
 40
0.7999999999999999
 40
0.7999999999999999
 40
0.7999999999999999
 40
0.7999999999999999
 40
0.8666666666666666
 40
0.8666666666666666
 40
0.8666666666666666
 40
0.8666666666666666
 40
0.9333333333333332
 40
0.9333333333333332
 40
0.9333333333333332
 40
0.9333333333333332
 40
1.0
 40
1.0
 40
1.0
 40
1.0
 10
37.331200000000003
 20
24.553599999999999
 30
0.0
 10
37.331200000000003
 20
24.553599999999999
 30
0.0
 10
38.585599999999999
 20
24.488
 30
0.0
 10
38.585599999999999
 20
24.488
 30
0.0
 10
38.585599999999999
 20
24.488
 30
0.0
 10
38.585599999999999
 20
24.488
 30
0.0
 10
39.826000000000001
 20
24.291500000000003
 30
0.0
 10
39.826000000000001
 20
24.291500000000003
 30
0.0
 10
39.826000000000001
 20
24.291500000000003
 30
0.0
 10
39.826000000000001
 20
24.291500000000003
 30
0.0
 10
41.039200000000001
 20
23.9663
 30
0.0
 10
41.039200000000001
 20
23.9663
 30
0.0
 10
41.039200000000001
 20
23.9663
 30
0.0
 10
41.039200000000001
 20
23.9663
 30
0.0
 10
42.211800000000004
 20
23.516100000000002
 30
0.0
 10
42.211800000000004
 20
23.516100000000002
 30
0.0
 10
42.211800000000004
 20
23.516100000000002
 30
0.0
 10
42.211800000000004
 20
23.516100000000002
 30
0.0
 10
43.331200000000003
 20
22.946000000000002
 30
0.0
 10
43.331200000000003
 20
22.946000000000002
 30
0.0
 10
43.331200000000003
 20
22.946000000000002
 30
0.0
 10
43.331200000000003
 20
22.946000000000002
 30
0.0
 10
44.384599999999999
 20
22.262
 30
0.0
 10
44.384599999999999
 20
22.262
 30
0.0
 10
44.384599999999999
 20
22.262
 30
0.0
 10
44.384599999999999
 20
22.262
 30
0.0
 10
45.360700000000001
 20
21.471400000000003
 30
0.0
 10
45.360700000000001
 20
21.471400000000003
 30
0.0
 10
45.360700000000001
 20
21.471400000000003
 30
0.0
 10
45.360700000000001
 20
21.471400000000003
 30
0.0
 10
46.249000000000002
 20
20.583100000000002
 30
0.0
 10
46.249000000000002
 20
20.583100000000002
 30
0.0
 10
46.249000000000002
 20
20.583100000000002
 30
0.0
 10
46.249000000000002
 20
20.583100000000002
 30
0.0
 10
47.039300000000004
 20
19.606999999999999
 30
0.0
 10
47.039300000000004
 20
19.606999999999999
 30
0.0
 10
47.039300000000004
 20
19.606999999999999
 30
0.0
 10
47.039300000000004
 20
19.606999999999999
 30
0.0
 10
47.723600000000005
 20
18.553599999999999
 30
0.0
 10
47.723600000000005
 20
18.553599999999999
 30
0.0
 10
47.723600000000005
 20
18.553599999999999
 30
0.0
 10
47.723600000000005
 20
18.553599999999999
 30
0.0
 10
48.293700000000001
 20
17.4346
 30
0.0
 10
48.293700000000001
 20
17.4346
 30
0.0
 10
48.293700000000001
 20
17.4346
 30
0.0
 10
48.293700000000001
 20
17.4346
 30
0.0
 10
48.743900000000004
 20
16.261900000000001
 30
0.0
 10
48.743900000000004
 20
16.261900000000001
 30
0.0
 10
48.743900000000004
 20
16.261900000000001
 30
0.0
 10
48.743900000000004
 20
16.261900000000001
 30
0.0
 10
49.068800000000003
 20
15.0487
 30
0.0
 10
49.068800000000003
 20
15.0487
 30
0.0
 10
49.068800000000003
 20
15.0487
 30
0.0
 10
49.068800000000003
 20
15.0487
 30
0.0
 10
49.265300000000003
 20
13.808
 30
0.0
 10
49.265300000000003
 20
13.808
 30
0.0
 10
49.265300000000003
 20
13.808
 30
0.0
 10
49.265300000000003
 20
13.808
 30
0.0
 10
49.331200000000003
 20
12.553500000000001
 30
0.0
 10
49.331200000000003
 20
12.553500000000001
 30
0.0
  0
SPLINE
  5
9A
100
AcDbEntity
  8
Ebene 1
370
    35
100
AcDbSpline
210
0.0
220
0.0
230
1.0
 70
     0
 71
     3
 72
     8
 73
     4
 74
     0
 42
0.0000000001
 43
0.0000000001
 40
0.0
 40
0.0
 40
0.0
 40
0.0
 40
1.0
 40
1.0
 40
1.0
 40
1.0
 10
49.331200000000003
 20
12.553500000000001
 30
0.0
 10
49.331200000000003
 20
12.553500000000001
 30
0.0
 10
49.331200000000003
 20
-40.446400000000004
 30
0.0
 10
49.331200000000003
 20
-40.446400000000004
 30
0.0
  0
SPLINE
  5
9B
100
AcDbEntity
  8
Ebene 1
370
    35
100
AcDbSpline
210
0.0
220
0.0
230
1.0
 70
     0
 71
     3
 72
     8
 73
     4
 74
     0
 42
0.0000000001
 43
0.0000000001
 40
0.0
 40
0.0
 40
0.0
 40
0.0
 40
1.0
 40
1.0
 40
1.0
 40
1.0
 10
49.331200000000003
 20
-40.446400000000004
 30
0.0
 10
49.331200000000003
 20
-40.446400000000004
 30
0.0
 10
48.331099999999999
 20
-40.446400000000004
 30
0.0
 10
48.331099999999999
 20
-40.446400000000004
 30
0.0
  0
SPLINE
  5
9C
100
AcDbEntity
  8
Ebene 1
370
    35
100
AcDbSpline
210
0.0
220
0.0
230
1.0
 70
     0
 71
     3
 72
     8
 73
     4
 74
     0
 42
0.0000000001
 43
0.0000000001
 40
0.0
 40
0.0
 40
0.0
 40
0.0
 40
1.0
 40
1.0
 40
1.0
 40
1.0
 10
48.331099999999999
 20
-40.446400000000004
 30
0.0
 10
48.331099999999999
 20
-40.446400000000004
 30
0.0
 10
48.331099999999999
 20
12.553500000000001
 30
0.0
 10
48.331099999999999
 20
12.553500000000001
 30
0.0
  0
SPLINE
  5
9D
100
AcDbEntity
  8
Ebene 1
370
    35
100
AcDbSpline
210
0.0
220
0.0
230
1.0
 70
     0
 71
     3
 72
     8
 73
     4
 74
     0
 42
0.0000000001
 43
0.0000000001
 40
0.0
 40
0.0
 40
0.0
 40
0.0
 40
1.0
 40
1.0
 40
1.0
 40
1.0
 10
38.331299999999999
 20
22.553700000000003
 30
0.0
 10
38.331299999999999
 20
22.553700000000003
 30
0.0
 10
11.274600000000001
 20
22.553700000000003
 30
0.0
 10
11.274600000000001
 20
22.553700000000003
 30
0.0
  0
SPLINE
  5
9E
100
AcDbEntity
  8
Ebene 1
370
    35
100
AcDbSpline
210
0.0
220
0.0
230
1.0
 70
     0
 71
     3
 72
     8
 73
     4
 74
     0
 42
0.0000000001
 43
0.0000000001
 40
0.0
 40
0.0
 40
0.0
 40
0.0
 40
1.0
 40
1.0
 40
1.0
 40
1.0
 10
11.274600000000001
 20
22.553700000000003
 30
0.0
 10
11.274600000000001
 20
22.553700000000003
 30
0.0
 10
11.274600000000001
 20
1.0537000000000001
 30
0.0
 10
11.274600000000001
 20
1.0537000000000001
 30
0.0
  0
SPLINE
  5
9F
100
AcDbEntity
  8
Ebene 1
370
    35
100
AcDbSpline
210
0.0
220
0.0
230
1.0
 70
     0
 71
     3
 72
     8
 73
     4
 74
     0
 42
0.0000000001
 43
0.0000000001
 40
0.0
 40
0.0
 40
0.0
 40
0.0
 40
1.0
 40
1.0
 40
1.0
 40
1.0
 10
11.274600000000001
 20
1.0537000000000001
 30
0.0
 10
11.274600000000001
 20
1.0537000000000001
 30
0.0
 10
-16.981100000000001
 20
1.0537000000000001
 30
0.0
 10
-16.981100000000001
 20
1.0537000000000001
 30
0.0
  0
SPLINE
  5
A0
100
AcDbEntity
  8
Ebene 1
370
    35
100
AcDbSpline
210
0.0
220
0.0
230
1.0
 70
     0
 71
     3
 72
     8
 73
     4
 74
     0
 42
0.0000000001
 43
0.0000000001
 40
0.0
 40
0.0
 40
0.0
 40
0.0
 40
1.0
 40
1.0
 40
1.0
 40
1.0
 10
-16.981100000000001
 20
1.0537000000000001
 30
0.0
 10
-16.981100000000001
 20
1.0537000000000001
 30
0.0
 10
-17.918800000000001
 20
4.5536000000000003
 30
0.0
 10
-17.918800000000001
 20
4.5536000000000003
 30
0.0
  0
SPLINE
  5
A1
100
AcDbEntity
  8
Ebene 1
370
    35
100
AcDbSpline
210
0.0
220
0.0
230
1.0
 70
     0
 71
     3
 72
     8
 73
     4
 74
     0
 42
0.0000000001
 43
0.0000000001
 40
0.0
 40
0.0
 40
0.0
 40
0.0
 40
1.0
 40
1.0
 40
1.0
 40
1.0
 10
-17.918800000000001
 20
4.5536000000000003
 30
0.0
 10
-17.918800000000001
 20
4.5536000000000003
 30
0.0
 10
-17.918800000000001
 20
7.5536000000000003
 30
0.0
 10
-17.918800000000001
 20
7.5536000000000003
 30
0.0
  0
SPLINE
  5
A2
100
AcDbEntity
  8
Ebene 1
370
    35
100
AcDbSpline
210
0.0
220
0.0
230
1.0
 70
     0
 71
     3
 72
    36
 73
    32
 74
     0
 42
0.0000000001
 43
0.0000000001
 40
0.0
 40
0.0
 40
0.0
 40
0.0
 40
0.125
 40
0.125
 40
0.125
 40
0.125
 40
0.25
 40
0.25
 40
0.25
 40
0.25
 40
0.375
 40
0.375
 40
0.375
 40
0.375
 40
0.5
 40
0.5
 40
0.5
 40
0.5
 40
0.625
 40
0.625
 40
0.625
 40
0.625
 40
0.75
 40
0.75
 40
0.75
 40
0.75
 40
0.875
 40
0.875
 40
0.875
 40
0.875
 40
1.0
 40
1.0
 40
1.0
 40
1.0
 10
-17.918800000000001
 20
7.5536000000000003
 30
0.0
 10
-17.918800000000001
 20
7.5536000000000003
 30
0.0
 10
-17.632000000000001
 20
7.6108000000000002
 30
0.0
 10
-17.632000000000001
 20
7.6108000000000002
 30
0.0
 10
-17.632000000000001
 20
7.6108000000000002
 30
0.0
 10
-17.632000000000001
 20
7.6108000000000002
 30
0.0
 10
-17.3886
 20
7.7734000000000005
 30
0.0
 10
-17.3886
 20
7.7734000000000005
 30
0.0
 10
-17.3886
 20
7.7734000000000005
 30
0.0
 10
-17.3886
 20
7.7734000000000005
 30
0.0
 10
-17.225899999999999
 20
8.0165000000000006
 30
0.0
 10
-17.225899999999999
 20
8.0165000000000006
 30
0.0
 10
-17.225899999999999
 20
8.0165000000000006
 30
0.0
 10
-17.225899999999999
 20
8.0165000000000006
 30
0.0
 10
-17.168800000000001
 20
8.3036000000000012
 30
0.0
 10
-17.168800000000001
 20
8.3036000000000012
 30
0.0
 10
-17.168800000000001
 20
8.3036000000000012
 30
0.0
 10
-17.168800000000001
 20
8.3036000000000012
 30
0.0
 10
-17.225899999999999
 20
8.5907999999999998
 30
0.0
 10
-17.225899999999999
 20
8.5907999999999998
 30
0.0
 10
-17.225899999999999
 20
8.5907999999999998
 30
0.0
 10
-17.225899999999999
 20
8.5907999999999998
 30
0.0
 10
-17.3886
 20
8.8338999999999999
 30
0.0
 10
-17.3886
 20
8.8338999999999999
 30
0.0
 10
-17.3886
 20
8.8338999999999999
 30
0.0
 10
-17.3886
 20
8.8338999999999999
 30
0.0
 10
-17.632000000000001
 20
8.9965000000000011
 30
0.0
 10
-17.632000000000001
 20
8.9965000000000011
 30
0.0
 10
-17.632000000000001
 20
8.9965000000000011
 30
0.0
 10
-17.632000000000001
 20
8.9965000000000011
 30
0.0
 10
-17.918800000000001
 20
9.0536000000000012
 30
0.0
 10
-17.918800000000001
 20
9.0536000000000012
 30
0.0
  0
SPLINE
  5
A3
100
AcDbEntity
  8
Ebene 1
370
    35
100
AcDbSpline
210
0.0
220
0.0
230
1.0
 70
     0
 71
     3
 72
     8
 73
     4
 74
     0
 42
0.0000000001
 43
0.0000000001
 40
0.0
 40
0.0
 40
0.0
 40
0.0
 40
1.0
 40
1.0
 40
1.0
 40
1.0
 10
-17.918800000000001
 20
9.0536000000000012
 30
0.0
 10
-17.918800000000001
 20
9.0536000000000012
 30
0.0
 10
-21.418700000000001
 20
9.0536000000000012
 30
0.0
 10
-21.418700000000001
 20
9.0536000000000012
 30
0.0
  0
SPLINE
  5
A4
100
AcDbEntity
  8
Ebene 1
370
    35
100
AcDbSpline
210
0.0
220
0.0
230
1.0
 70
     0
 71
     3
 72
   232
 73
   228
 74
     0
 42
0.0000000001
 43
0.0000000001
 40
0.0
 40
0.0
 40
0.0
 40
0.0
 40
0.0175438596491228
 40
0.0175438596491228
 40
0.0175438596491228
 40
0.0175438596491228
 40
0.0350877192982456
 40
0.0350877192982456
 40
0.0350877192982456
 40
0.0350877192982456
 40
0.0526315789473684
 40
0.0526315789473684
 40
0.0526315789473684
 40
0.0526315789473684
 40
0.0701754385964912
 40
0.0701754385964912
 40
0.0701754385964912
 40
0.0701754385964912
 40
0.087719298245614
 40
0.087719298245614
 40
0.087719298245614
 40
0.087719298245614
 40
0.1052631578947368
 40
0.1052631578947368
 40
0.1052631578947368
 40
0.1052631578947368
 40
0.1228070175438596
 40
0.1228070175438596
 40
0.1228070175438596
 40
0.1228070175438596
 40
0.1403508771929825
 40
0.1403508771929825
 40
0.1403508771929825
 40
0.1403508771929825
 40
0.1578947368421053
 40
0.1578947368421053
 40
0.1578947368421053
 40
0.1578947368421053
 40
0.1754385964912281
 40
0.1754385964912281
 40
0.1754385964912281
 40
0.1754385964912281
 40
0.1929824561403509
 40
0.1929824561403509
 40
0.1929824561403509
 40
0.1929824561403509
 40
0.2105263157894737
 40
0.2105263157894737
 40
0.2105263157894737
 40
0.2105263157894737
 40
0.2280701754385965
 40
0.2280701754385965
 40
0.2280701754385965
 40
0.2280701754385965
 40
0.2456140350877193
 40
0.2456140350877193
 40
0.2456140350877193
 40
0.2456140350877193
 40
0.2631578947368421
 40
0.2631578947368421
 40
0.2631578947368421
 40
0.2631578947368421
 40
0.2807017543859649
 40
0.2807017543859649
 40
0.2807017543859649
 40
0.2807017543859649
 40
0.2982456140350877
 40
0.2982456140350877
 40
0.2982456140350877
 40
0.2982456140350877
 40
0.3157894736842105
 40
0.3157894736842105
 40
0.3157894736842105
 40
0.3157894736842105
 40
0.3333333333333333
 40
0.3333333333333333
 40
0.3333333333333333
 40
0.3333333333333333
 40
0.3508771929824561
 40
0.3508771929824561
 40
0.3508771929824561
 40
0.3508771929824561
 40
0.3684210526315789
 40
0.3684210526315789
 40
0.3684210526315789
 40
0.3684210526315789
 40
0.3859649122807017
 40
0.3859649122807017
 40
0.3859649122807017
 40
0.3859649122807017
 40
0.4035087719298245
 40
0.4035087719298245
 40
0.4035087719298245
 40
0.4035087719298245
 40
0.4210526315789474
 40
0.4210526315789474
 40
0.4210526315789474
 40
0.4210526315789474
 40
0.4385964912280702
 40
0.4385964912280702
 40
0.4385964912280702
 40
0.4385964912280702
 40
0.456140350877193
 40
0.456140350877193
 40
0.456140350877193
 40
0.456140350877193
 40
0.4736842105263158
 40
0.4736842105263158
 40
0.4736842105263158
 40
0.4736842105263158
 40
0.4912280701754386
 40
0.4912280701754386
 40
0.4912280701754386
 40
0.4912280701754386
 40
0.5087719298245614
 40
0.5087719298245614
 40
0.5087719298245614
 40
0.5087719298245614
 40
0.5263157894736843
 40
0.5263157894736843
 40
0.5263157894736843
 40
0.5263157894736843
 40
0.5438596491228072
 40
0.5438596491228072
 40
0.5438596491228072
 40
0.5438596491228072
 40
0.56140350877193
 40
0.56140350877193
 40
0.56140350877193
 40
0.56140350877193
 40
0.5789473684210529
 40
0.5789473684210529
 40
0.5789473684210529
 40
0.5789473684210529
 40
0.5964912280701757
 40
0.5964912280701757
 40
0.5964912280701757
 40
0.5964912280701757
 40
0.6140350877192986
 40
0.6140350877192986
 40
0.6140350877192986
 40
0.6140350877192986
 40
0.6315789473684215
 40
0.6315789473684215
 40
0.6315789473684215
 40
0.6315789473684215
 40
0.6491228070175443
 40
0.6491228070175443
 40
0.6491228070175443
 40
0.6491228070175443
 40
0.6666666666666672
 40
0.6666666666666672
 40
0.6666666666666672
 40
0.6666666666666672
 40
0.6842105263157901
 40
0.6842105263157901
 40
0.6842105263157901
 40
0.6842105263157901
 40
0.7017543859649129
 40
0.7017543859649129
 40
0.7017543859649129
 40
0.7017543859649129
 40
0.7192982456140358
 40
0.7192982456140358
 40
0.7192982456140358
 40
0.7192982456140358
 40
0.7368421052631586
 40
0.7368421052631586
 40
0.7368421052631586
 40
0.7368421052631586
 40
0.7543859649122815
 40
0.7543859649122815
 40
0.7543859649122815
 40
0.7543859649122815
 40
0.7719298245614044
 40
0.7719298245614044
 40
0.7719298245614044
 40
0.7719298245614044
 40
0.7894736842105272
 40
0.7894736842105272
 40
0.7894736842105272
 40
0.7894736842105272
 40
0.8070175438596501
 40
0.8070175438596501
 40
0.8070175438596501
 40
0.8070175438596501
 40
0.8245614035087729
 40
0.8245614035087729
 40
0.8245614035087729
 40
0.8245614035087729
 40
0.8421052631578958
 40
0.8421052631578958
 40
0.8421052631578958
 40
0.8421052631578958
 40
0.8596491228070187
 40
0.8596491228070187
 40
0.8596491228070187
 40
0.8596491228070187
 40
0.8771929824561415
 40
0.8771929824561415
 40
0.8771929824561415
 40
0.8771929824561415
 40
0.8947368421052644
 40
0.8947368421052644
 40
0.8947368421052644
 40
0.8947368421052644
 40
0.9122807017543873
 40
0.9122807017543873
 40
0.9122807017543873
 40
0.9122807017543873
 40
0.9298245614035101
 40
0.9298245614035101
 40
0.9298245614035101
 40
0.9298245614035101
 40
0.947368421052633
 40
0.947368421052633
 40
0.947368421052633
 40
0.947368421052633
 40
0.9649122807017558
 40
0.9649122807017558
 40
0.9649122807017558
 40
0.9649122807017558
 40
0.9824561403508787
 40
0.9824561403508787
 40
0.9824561403508787
 40
0.9824561403508787
 40
1.0
 40
1.0
 40
1.0
 40
1.0
 10
-28.669
 20
-40.446400000000004
 30
0.0
 10
-28.669
 20
-40.446400000000004
 30
0.0
 10
-28.610400000000002
 20
-40.446400000000004
 30
0.0
 10
-28.610400000000002
 20
-40.446400000000004
 30
0.0
 10
-28.610400000000002
 20
-40.446400000000004
 30
0.0
 10
-28.610400000000002
 20
-40.446400000000004
 30
0.0
 10
-28.435100000000002
 20
-40.446400000000004
 30
0.0
 10
-28.435100000000002
 20
-40.446400000000004
 30
0.0
 10
-28.435100000000002
 20
-40.446400000000004
 30
0.0
 10
-28.435100000000002
 20
-40.446400000000004
 30
0.0
 10
-28.143700000000003
 20
-40.446400000000004
 30
0.0
 10
-28.143700000000003
 20
-40.446400000000004
 30
0.0
 10
-28.143700000000003
 20
-40.446400000000004
 30
0.0
 10
-28.143700000000003
 20
-40.446400000000004
 30
0.0
 10
-27.736900000000002
 20
-40.446400000000004
 30
0.0
 10
-27.736900000000002
 20
-40.446400000000004
 30
0.0
 10
-27.736900000000002
 20
-40.446400000000004
 30
0.0
 10
-27.736900000000002
 20
-40.446400000000004
 30
0.0
 10
-27.216200000000001
 20
-40.446400000000004
 30
0.0
 10
-27.216200000000001
 20
-40.446400000000004
 30
0.0
 10
-27.216200000000001
 20
-40.446400000000004
 30
0.0
 10
-27.216200000000001
 20
-40.446400000000004
 30
0.0
 10
-26.582600000000003
 20
-40.446400000000004
 30
0.0
 10
-26.582600000000003
 20
-40.446400000000004
 30
0.0
 10
-26.582600000000003
 20
-40.446400000000004
 30
0.0
 10
-26.582600000000003
 20
-40.446400000000004
 30
0.0
 10
-25.839000000000002
 20
-40.446400000000004
 30
0.0
 10
-25.839000000000002
 20
-40.446400000000004
 30
0.0
 10
-25.839000000000002
 20
-40.446400000000004
 30
0.0
 10
-25.839000000000002
 20
-40.446400000000004
 30
0.0
 10
-24.986700000000003
 20
-40.446400000000004
 30
0.0
 10
-24.986700000000003
 20
-40.446400000000004
 30
0.0
 10
-24.986700000000003
 20
-40.446400000000004
 30
0.0
 10
-24.986700000000003
 20
-40.446400000000004
 30
0.0
 10
-24.028500000000001
 20
-40.446400000000004
 30
0.0
 10
-24.028500000000001
 20
-40.446400000000004
 30
0.0
 10
-24.028500000000001
 20
-40.446400000000004
 30
0.0
 10
-24.028500000000001
 20
-40.446400000000004
 30
0.0
 10
-22.967700000000001
 20
-40.446400000000004
 30
0.0
 10
-22.967700000000001
 20
-40.446400000000004
 30
0.0
 10
-22.967700000000001
 20
-40.446400000000004
 30
0.0
 10
-22.967700000000001
 20
-40.446400000000004
 30
0.0
 10
-21.807100000000002
 20
-40.446400000000004
 30
0.0
 10
-21.807100000000002
 20
-40.446400000000004
 30
0.0
 10
-21.807100000000002
 20
-40.446400000000004
 30
0.0
 10
-21.807100000000002
 20
-40.446400000000004
 30
0.0
 10
-20.550900000000002
 20
-40.446400000000004
 30
0.0
 10
-20.550900000000002
 20
-40.446400000000004
 30
0.0
 10
-20.550900000000002
 20
-40.446400000000004
 30
0.0
 10
-20.550900000000002
 20
-40.446400000000004
 30
0.0
 10
-19.201800000000002
 20
-40.446400000000004
 30
0.0
 10
-19.201800000000002
 20
-40.446400000000004
 30
0.0
 10
-19.201800000000002
 20
-40.446400000000004
 30
0.0
 10
-19.201800000000002
 20
-40.446400000000004
 30
0.0
 10
-17.765000000000001
 20
-40.446400000000004
 30
0.0
 10
-17.765000000000001
 20
-40.446400000000004
 30
0.0
 10
-17.765000000000001
 20
-40.446400000000004
 30
0.0
 10
-17.765000000000001
 20
-40.446400000000004
 30
0.0
 10
-16.2441
 20
-40.446400000000004
 30
0.0
 10
-16.2441
 20
-40.446400000000004
 30
0.0
 10
-16.2441
 20
-40.446400000000004
 30
0.0
 10
-16.2441
 20
-40.446400000000004
 30
0.0
 10
-14.644300000000001
 20
-40.446400000000004
 30
0.0
 10
-14.644300000000001
 20
-40.446400000000004
 30
0.0
 10
-14.644300000000001
 20
-40.446400000000004
 30
0.0
 10
-14.644300000000001
 20
-40.446400000000004
 30
0.0
 10
-12.970000000000001
 20
-40.446400000000004
 30
0.0
 10
-12.970000000000001
 20
-40.446400000000004
 30
0.0
 10
-12.970000000000001
 20
-40.446400000000004
 30
0.0
 10
-12.970000000000001
 20
-40.446400000000004
 30
0.0
 10
-11.2262
 20
-40.446400000000004
 30
0.0
 10
-11.2262
 20
-40.446400000000004
 30
0.0
 10
-11.2262
 20
-40.446400000000004
 30
0.0
 10
-11.2262
 20
-40.446400000000004
 30
0.0
 10
-9.4190000000000005
 20
-40.446400000000004
 30
0.0
 10
-9.4190000000000005
 20
-40.446400000000004
 30
0.0
 10
-9.4190000000000005
 20
-40.446400000000004
 30
0.0
 10
-9.4190000000000005
 20
-40.446400000000004
 30
0.0
 10
-7.5528000000000004
 20
-40.446400000000004
 30
0.0
 10
-7.5528000000000004
 20
-40.446400000000004
 30
0.0
 10
-7.5528000000000004
 20
-40.446400000000004
 30
0.0
 10
-7.5528000000000004
 20
-40.446400000000004
 30
0.0
 10
-5.6340000000000003
 20
-40.446400000000004
 30
0.0
 10
-5.6340000000000003
 20
-40.446400000000004
 30
0.0
 10
-5.6340000000000003
 20
-40.446400000000004
 30
0.0
 10
-5.6340000000000003
 20
-40.446400000000004
 30
0.0
 10
-3.6683000000000003
 20
-40.446400000000004
 30
0.0
 10
-3.6683000000000003
 20
-40.446400000000004
 30
0.0
 10
-3.6683000000000003
 20
-40.446400000000004
 30
0.0
 10
-3.6683000000000003
 20
-40.446400000000004
 30
0.0
 10
-1.6617000000000002
 20
-40.446400000000004
 30
0.0
 10
-1.6617000000000002
 20
-40.446400000000004
 30
0.0
 10
-1.6617000000000002
 20
-40.446400000000004
 30
0.0
 10
-1.6617000000000002
 20
-40.446400000000004
 30
0.0
 10
0.3802
 20
-40.446400000000004
 30
0.0
 10
0.3802
 20
-40.446400000000004
 30
0.0
 10
0.3802
 20
-40.446400000000004
 30
0.0
 10
0.3802
 20
-40.446400000000004
 30
0.0
 10
2.4502999999999999
 20
-40.446400000000004
 30
0.0
 10
2.4502999999999999
 20
-40.446400000000004
 30
0.0
 10
2.4502999999999999
 20
-40.446400000000004
 30
0.0
 10
2.4502999999999999
 20
-40.446400000000004
 30
0.0
 10
4.5429000000000004
 20
-40.446400000000004
 30
0.0
 10
4.5429000000000004
 20
-40.446400000000004
 30
0.0
 10
4.5429000000000004
 20
-40.446400000000004
 30
0.0
 10
4.5429000000000004
 20
-40.446400000000004
 30
0.0
 10
6.6518000000000006
 20
-40.446400000000004
 30
0.0
 10
6.6518000000000006
 20
-40.446400000000004
 30
0.0
 10
6.6518000000000006
 20
-40.446400000000004
 30
0.0
 10
6.6518000000000006
 20
-40.446400000000004
 30
0.0
 10
8.7703000000000007
 20
-40.446400000000004
 30
0.0
 10
8.7703000000000007
 20
-40.446400000000004
 30
0.0
 10
8.7703000000000007
 20
-40.446400000000004
 30
0.0
 10
8.7703000000000007
 20
-40.446400000000004
 30
0.0
 10
10.8919
 20
-40.446400000000004
 30
0.0
 10
10.8919
 20
-40.446400000000004
 30
0.0
 10
10.8919
 20
-40.446400000000004
 30
0.0
 10
10.8919
 20
-40.446400000000004
 30
0.0
 10
13.0107
 20
-40.446400000000004
 30
0.0
 10
13.0107
 20
-40.446400000000004
 30
0.0
 10
13.0107
 20
-40.446400000000004
 30
0.0
 10
13.0107
 20
-40.446400000000004
 30
0.0
 10
15.119200000000001
 20
-40.446400000000004
 30
0.0
 10
15.119200000000001
 20
-40.446400000000004
 30
0.0
 10
15.119200000000001
 20
-40.446400000000004
 30
0.0
 10
15.119200000000001
 20
-40.446400000000004
 30
0.0
 10
17.2119
 20
-40.446400000000004
 30
0.0
 10
17.2119
 20
-40.446400000000004
 30
0.0
 10
17.2119
 20
-40.446400000000004
 30
0.0
 10
17.2119
 20
-40.446400000000004
 30
0.0
 10
19.282299999999999
 20
-40.446400000000004
 30
0.0
 10
19.282299999999999
 20
-40.446400000000004
 30
0.0
 10
19.282299999999999
 20
-40.446400000000004
 30
0.0
 10
19.282299999999999
 20
-40.446400000000004
 30
0.0
 10
21.323900000000002
 20
-40.446400000000004
 30
0.0
 10
21.323900000000002
 20
-40.446400000000004
 30
0.0
 10
21.323900000000002
 20
-40.446400000000004
 30
0.0
 10
21.323900000000002
 20
-40.446400000000004
 30
0.0
 10
23.3308
 20
-40.446400000000004
 30
0.0
 10
23.3308
 20
-40.446400000000004
 30
0.0
 10
23.3308
 20
-40.446400000000004
 30
0.0
 10
23.3308
 20
-40.446400000000004
 30
0.0
 10
25.296500000000002
 20
-40.446400000000004
 30
0.0
 10
25.296500000000002
 20
-40.446400000000004
 30
0.0
 10
25.296500000000002
 20
-40.446400000000004
 30
0.0
 10
25.296500000000002
 20
-40.446400000000004
 30
0.0
 10
27.215300000000003
 20
-40.446400000000004
 30
0.0
 10
27.215300000000003
 20
-40.446400000000004
 30
0.0
 10
27.215300000000003
 20
-40.446400000000004
 30
0.0
 10
27.215300000000003
 20
-40.446400000000004
 30
0.0
 10
29.081100000000003
 20
-40.446400000000004
 30
0.0
 10
29.081100000000003
 20
-40.446400000000004
 30
0.0
 10
29.081100000000003
 20
-40.446400000000004
 30
0.0
 10
29.081100000000003
 20
-40.446400000000004
 30
0.0
 10
30.8887
 20
-40.446400000000004
 30
0.0
 10
30.8887
 20
-40.446400000000004
 30
0.0
 10
30.8887
 20
-40.446400000000004
 30
0.0
 10
30.8887
 20
-40.446400000000004
 30
0.0
 10
32.632200000000005
 20
-40.446400000000004
 30
0.0
 10
32.632200000000005
 20
-40.446400000000004
 30
0.0
 10
32.632200000000005
 20
-40.446400000000004
 30
0.0
 10
32.632200000000005
 20
-40.446400000000004
 30
0.0
 10
34.306400000000004
 20
-40.446400000000004
 30
0.0
 10
34.306400000000004
 20
-40.446400000000004
 30
0.0
 10
34.306400000000004
 20
-40.446400000000004
 30
0.0
 10
34.306400000000004
 20
-40.446400000000004
 30
0.0
 10
35.906600000000005
 20
-40.446400000000004
 30
0.0
 10
35.906600000000005
 20
-40.446400000000004
 30
0.0
 10
35.906600000000005
 20
-40.446400000000004
 30
0.0
 10
35.906600000000005
 20
-40.446400000000004
 30
0.0
 10
37.427500000000002
 20
-40.446400000000004
 30
0.0
 10
37.427500000000002
 20
-40.446400000000004
 30
0.0
 10
37.427500000000002
 20
-40.446400000000004
 30
0.0
 10
37.427500000000002
 20
-40.446400000000004
 30
0.0
 10
38.8643
 20
-40.446400000000004
 30
0.0
 10
38.8643
 20
-40.446400000000004
 30
0.0
 10
38.8643
 20
-40.446400000000004
 30
0.0
 10
38.8643
 20
-40.446400000000004
 30
0.0
 10
40.213000000000001
 20
-40.446400000000004
 30
0.0
 10
40.213000000000001
 20
-40.446400000000004
 30
0.0
 10
40.213000000000001
 20
-40.446400000000004
 30
0.0
 10
40.213000000000001
 20
-40.446400000000004
 30
0.0
 10
41.4696
 20
-40.446400000000004
 30
0.0
 10
41.4696
 20
-40.446400000000004
 30
0.0
 10
41.4696
 20
-40.446400000000004
 30
0.0
 10
41.4696
 20
-40.446400000000004
 30
0.0
 10
42.630200000000002
 20
-40.446400000000004
 30
0.0
 10
42.630200000000002
 20
-40.446400000000004
 30
0.0
 10
42.630200000000002
 20
-40.446400000000004
 30
0.0
 10
42.630200000000002
 20
-40.446400000000004
 30
0.0
 10
43.691000000000003
 20
-40.446400000000004
 30
0.0
 10
43.691000000000003
 20
-40.446400000000004
 30
0.0
 10
43.691000000000003
 20
-40.446400000000004
 30
0.0
 10
43.691000000000003
 20
-40.446400000000004
 30
0.0
 10
44.648800000000001
 20
-40.446400000000004
 30
0.0
 10
44.648800000000001
 20
-40.446400000000004
 30
0.0
 10
44.648800000000001
 20
-40.446400000000004
 30
0.0
 10
44.648800000000001
 20
-40.446400000000004
 30
0.0
 10
45.501100000000001
 20
-40.446400000000004
 30
0.0
 10
45.501100000000001
 20
-40.446400000000004
 30
0.0
 10
45.501100000000001
 20
-40.446400000000004
 30
0.0
 10
45.501100000000001
 20
-40.446400000000004
 30
0.0
 10
46.245100000000001
 20
-40.446400000000004
 30
0.0
 10
46.245100000000001
 20
-40.446400000000004
 30
0.0
 10
46.245100000000001
 20
-40.446400000000004
 30
0.0
 10
46.245100000000001
 20
-40.446400000000004
 30
0.0
 10
46.878399999999999
 20
-40.446400000000004
 30
0.0
 10
46.878399999999999
 20
-40.446400000000004
 30
0.0
 10
46.878399999999999
 20
-40.446400000000004
 30
0.0
 10
46.878399999999999
 20
-40.446400000000004
 30
0.0
 10
47.3994
 20
-40.446400000000004
 30
0.0
 10
47.3994
 20
-40.446400000000004
 30
0.0
 10
47.3994
 20
-40.446400000000004
 30
0.0
 10
47.3994
 20
-40.446400000000004
 30
0.0
 10
47.806200000000004
 20
-40.446400000000004
 30
0.0
 10
47.806200000000004
 20
-40.446400000000004
 30
0.0
 10
47.806200000000004
 20
-40.446400000000004
 30
0.0
 10
47.806200000000004
 20
-40.446400000000004
 30
0.0
 10
48.0976
 20
-40.446400000000004
 30
0.0
 10
48.0976
 20
-40.446400000000004
 30
0.0
 10
48.0976
 20
-40.446400000000004
 30
0.0
 10
48.0976
 20
-40.446400000000004
 30
0.0
 10
48.272600000000004
 20
-40.446400000000004
 30
0.0
 10
48.272600000000004
 20
-40.446400000000004
 30
0.0
 10
48.272600000000004
 20
-40.446400000000004
 30
0.0
 10
48.272600000000004
 20
-40.446400000000004
 30
0.0
 10
48.331099999999999
 20
-40.446400000000004
 30
0.0
 10
48.331099999999999
 20
-40.446400000000004
 30
0.0
  0
SPLINE
  5
A5
100
AcDbEntity
  8
Ebene 1
370
    35
100
AcDbSpline
210
0.0
220
0.0
230
1.0
 70
     0
 71
     3
 72
    36
 73
    32
 74
     0
 42
0.0000000001
 43
0.0000000001
 40
0.0
 40
0.0
 40
0.0
 40
0.0
 40
0.125
 40
0.125
 40
0.125
 40
0.125
 40
0.25
 40
0.25
 40
0.25
 40
0.25
 40
0.375
 40
0.375
 40
0.375
 40
0.375
 40
0.5
 40
0.5
 40
0.5
 40
0.5
 40
0.625
 40
0.625
 40
0.625
 40
0.625
 40
0.75
 40
0.75
 40
0.75
 40
0.75
 40
0.875
 40
0.875
 40
0.875
 40
0.875
 40
1.0
 40
1.0
 40
1.0
 40
1.0
 10
24.788900000000002
 20
9.0536000000000012
 30
0.0
 10
24.788900000000002
 20
9.0536000000000012
 30
0.0
 10
24.645300000000002
 20
8.9965000000000011
 30
0.0
 10
24.645300000000002
 20
8.9965000000000011
 30
0.0
 10
24.645300000000002
 20
8.9965000000000011
 30
0.0
 10
24.645300000000002
 20
8.9965000000000011
 30
0.0
 10
24.523600000000002
 20
8.8338999999999999
 30
0.0
 10
24.523600000000002
 20
8.8338999999999999
 30
0.0
 10
24.523600000000002
 20
8.8338999999999999
 30
0.0
 10
24.523600000000002
 20
8.8338999999999999
 30
0.0
 10
24.442400000000003
 20
8.5907999999999998
 30
0.0
 10
24.442400000000003
 20
8.5907999999999998
 30
0.0
 10
24.442400000000003
 20
8.5907999999999998
 30
0.0
 10
24.442400000000003
 20
8.5907999999999998
 30
0.0
 10
24.413800000000002
 20
8.3036000000000012
 30
0.0
 10
24.413800000000002
 20
8.3036000000000012
 30
0.0
 10
24.413800000000002
 20
8.3036000000000012
 30
0.0
 10
24.413800000000002
 20
8.3036000000000012
 30
0.0
 10
24.442400000000003
 20
8.0165000000000006
 30
0.0
 10
24.442400000000003
 20
8.0165000000000006
 30
0.0
 10
24.442400000000003
 20
8.0165000000000006
 30
0.0
 10
24.442400000000003
 20
8.0165000000000006
 30
0.0
 10
24.523600000000002
 20
7.7734000000000005
 30
0.0
 10
24.523600000000002
 20
7.7734000000000005
 30
0.0
 10
24.523600000000002
 20
7.7734000000000005
 30
0.0
 10
24.523600000000002
 20
7.7734000000000005
 30
0.0
 10
24.645300000000002
 20
7.6108000000000002
 30
0.0
 10
24.645300000000002
 20
7.6108000000000002
 30
0.0
 10
24.645300000000002
 20
7.6108000000000002
 30
0.0
 10
24.645300000000002
 20
7.6108000000000002
 30
0.0
 10
24.788900000000002
 20
7.5536000000000003
 30
0.0
 10
24.788900000000002
 20
7.5536000000000003
 30
0.0
  0
SPLINE
  5
A6
100
AcDbEntity
  8
Ebene 1
370
    35
100
AcDbSpline
210
0.0
220
0.0
230
1.0
 70
     0
 71
     3
 72
     8
 73
     4
 74
     0
 42
0.0000000001
 43
0.0000000001
 40
0.0
 40
0.0
 40
0.0
 40
0.0
 40
1.0
 40
1.0
 40
1.0
 40
1.0
 10
24.788900000000002
 20
7.5536000000000003
 30
0.0
 10
24.788900000000002
 20
7.5536000000000003
 30
0.0
 10
24.788900000000002
 20
4.5536000000000003
 30
0.0
 10
24.788900000000002
 20
4.5536000000000003
 30
0.0
  0
SPLINE
  5
A7
100
AcDbEntity
  8
Ebene 1
370
    35
100
AcDbSpline
210
0.0
220
0.0
230
1.0
 70
     0
 71
     3
 72
     8
 73
     4
 74
     0
 42
0.0000000001
 43
0.0000000001
 40
0.0
 40
0.0
 40
0.0
 40
0.0
 40
1.0
 40
1.0
 40
1.0
 40
1.0
 10
24.788900000000002
 20
4.5536000000000003
 30
0.0
 10
24.788900000000002
 20
4.5536000000000003
 30
0.0
 10
24.319700000000001
 20
1.0537000000000001
 30
0.0
 10
24.319700000000001
 20
1.0537000000000001
 30
0.0
  0
SPLINE
  5
A8
100
AcDbEntity
  8
Ebene 1
370
    35
100
AcDbSpline
210
0.0
220
0.0
230
1.0
 70
     0
 71
     3
 72
     8
 73
     4
 74
     0
 42
0.0000000001
 43
0.0000000001
 40
0.0
 40
0.0
 40
0.0
 40
0.0
 40
1.0
 40
1.0
 40
1.0
 40
1.0
 10
25.913900000000002
 20
9.0536000000000012
 30
0.0
 10
25.913900000000002
 20
9.0536000000000012
 30
0.0
 10
25.913900000000002
 20
22.436600000000002
 30
0.0
 10
25.913900000000002
 20
22.436600000000002
 30
0.0
  0
SPLINE
  5
A9
100
AcDbEntity
  8
Ebene 1
370
    35
100
AcDbSpline
210
0.0
220
0.0
230
1.0
 70
     0
 71
     3
 72
     8
 73
     4
 74
     0
 42
0.0000000001
 43
0.0000000001
 40
0.0
 40
0.0
 40
0.0
 40
0.0
 40
1.0
 40
1.0
 40
1.0
 40
1.0
 10
25.913900000000002
 20
9.0536000000000012
 30
0.0
 10
25.913900000000002
 20
9.0536000000000012
 30
0.0
 10
24.788900000000002
 20
9.0536000000000012
 30
0.0
 10
24.788900000000002
 20
9.0536000000000012
 30
0.0
  0
SPLINE
  5
AA
100
AcDbEntity
  8
Ebene 1
370
    35
100
AcDbSpline
210
0.0
220
0.0
230
1.0
 70
     0
 71
     3
 72
     8
 73
     4
 74
     0
 42
0.0000000001
 43
0.0000000001
 40
0.0
 40
0.0
 40
0.0
 40
0.0
 40
1.0
 40
1.0
 40
1.0
 40
1.0
 10
24.319700000000001
 20
1.0537000000000001
 30
0.0
 10
24.319700000000001
 20
1.0537000000000001
 30
0.0
 10
11.274600000000001
 20
1.0537000000000001
 30
0.0
 10
11.274600000000001
 20
1.0537000000000001
 30
0.0
  0
SPLINE
  5
AB
100
AcDbEntity
  8
Ebene 1
370
    35
100
AcDbSpline
210
0.0
220
0.0
230
1.0
 70
     0
 71
     3
 72
     8
 73
     4
 74
     0
 42
0.0000000001
 43
0.0000000001
 40
0.0
 40
0.0
 40
0.0
 40
0.0
 40
1.0
 40
1.0
 40
1.0
 40
1.0
 10
23.729500000000002
 20
24.653500000000001
 30
0.0
 10
23.729500000000002
 20
24.653500000000001
 30
0.0
 10
23.729500000000002
 20
24.553599999999999
 30
0.0
 10
23.729500000000002
 20
24.553599999999999
 30
0.0
  0
SPLINE
  5
AC
100
AcDbEntity
  8
Ebene 1
370
    35
100
AcDbSpline
210
0.0
220
0.0
230
1.0
 70
     0
 71
     3
 72
    12
 73
     8
 74
     0
 42
0.0000000001
 43
0.0000000001
 40
0.0
 40
0.0
 40
0.0
 40
0.0
 40
0.5
 40
0.5
 40
0.5
 40
0.5
 40
1.0
 40
1.0
 40
1.0
 40
1.0
 10
23.729500000000002
 20
24.653500000000001
 30
0.0
 10
23.729500000000002
 20
24.653500000000001
 30
0.0
 10
23.6374
 20
24.653500000000001
 30
0.0
 10
23.6374
 20
24.653500000000001
 30
0.0
 10
23.6374
 20
24.653500000000001
 30
0.0
 10
23.6374
 20
24.653500000000001
 30
0.0
 10
23.581300000000002
 20
24.653500000000001
 30
0.0
 10
23.581300000000002
 20
24.653500000000001
 30
0.0
  0
SPLINE
  5
AD
100
AcDbEntity
  8
Ebene 1
370
    35
100
AcDbSpline
210
0.0
220
0.0
230
1.0
 70
     0
 71
     3
 72
     8
 73
     4
 74
     0
 42
0.0000000001
 43
0.0000000001
 40
0.0
 40
0.0
 40
0.0
 40
0.0
 40
1.0
 40
1.0
 40
1.0
 40
1.0
 10
24.4026
 20
24.653500000000001
 30
0.0
 10
24.4026
 20
24.653500000000001
 30
0.0
 10
24.4026
 20
24.553599999999999
 30
0.0
 10
24.4026
 20
24.553599999999999
 30
0.0
  0
SPLINE
  5
AE
100
AcDbEntity
  8
Ebene 1
370
    35
100
AcDbSpline
210
0.0
220
0.0
230
1.0
 70
     0
 71
     3
 72
     8
 73
     4
 74
     0
 42
0.0000000001
 43
0.0000000001
 40
0.0
 40
0.0
 40
0.0
 40
0.0
 40
1.0
 40
1.0
 40
1.0
 40
1.0
 10
24.4026
 20
24.653500000000001
 30
0.0
 10
24.4026
 20
24.653500000000001
 30
0.0
 10
23.729500000000002
 20
24.653500000000001
 30
0.0
 10
23.729500000000002
 20
24.653500000000001
 30
0.0
  0
SPLINE
  5
AF
100
AcDbEntity
  8
Ebene 1
370
    35
100
AcDbSpline
210
0.0
220
0.0
230
1.0
 70
     0
 71
     3
 72
     8
 73
     4
 74
     0
 42
0.0000000001
 43
0.0000000001
 40
0.0
 40
0.0
 40
0.0
 40
0.0
 40
1.0
 40
1.0
 40
1.0
 40
1.0
 10
19.352900000000002
 20
24.653500000000001
 30
0.0
 10
19.352900000000002
 20
24.653500000000001
 30
0.0
 10
19.352900000000002
 20
24.553599999999999
 30
0.0
 10
19.352900000000002
 20
24.553599999999999
 30
0.0
  0
SPLINE
  5
B0
100
AcDbEntity
  8
Ebene 1
370
    35
100
AcDbSpline
210
0.0
220
0.0
230
1.0
 70
     0
 71
     3
 72
     8
 73
     4
 74
     0
 42
0.0000000001
 43
0.0000000001
 40
0.0
 40
0.0
 40
0.0
 40
0.0
 40
1.0
 40
1.0
 40
1.0
 40
1.0
 10
19.569500000000001
 20
24.653500000000001
 30
0.0
 10
19.569500000000001
 20
24.653500000000001
 30
0.0
 10
19.352900000000002
 20
24.653500000000001
 30
0.0
 10
19.352900000000002
 20
24.653500000000001
 30
0.0
  0
SPLINE
  5
B1
100
AcDbEntity
  8
Ebene 1
370
    35
100
AcDbSpline
210
0.0
220
0.0
230
1.0
 70
     0
 71
     3
 72
     8
 73
     4
 74
     0
 42
0.0000000001
 43
0.0000000001
 40
0.0
 40
0.0
 40
0.0
 40
0.0
 40
1.0
 40
1.0
 40
1.0
 40
1.0
 10
3.395
 20
24.653500000000001
 30
0.0
 10
3.395
 20
24.653500000000001
 30
0.0
 10
3.395
 20
24.553599999999999
 30
0.0
 10
3.395
 20
24.553599999999999
 30
0.0
  0
SPLINE
  5
B2
100
AcDbEntity
  8
Ebene 1
370
    35
100
AcDbSpline
210
0.0
220
0.0
230
1.0
 70
     0
 71
     3
 72
     8
 73
     4
 74
     0
 42
0.0000000001
 43
0.0000000001
 40
0.0
 40
0.0
 40
0.0
 40
0.0
 40
1.0
 40
1.0
 40
1.0
 40
1.0
 10
4.2500999999999998
 20
24.653500000000001
 30
0.0
 10
4.2500999999999998
 20
24.653500000000001
 30
0.0
 10
4.2500999999999998
 20
24.553599999999999
 30
0.0
 10
4.2500999999999998
 20
24.553599999999999
 30
0.0
  0
SPLINE
  5
B3
100
AcDbEntity
  8
Ebene 1
370
    35
100
AcDbSpline
210
0.0
220
0.0
230
1.0
 70
     0
 71
     3
 72
    16
 73
    12
 74
     0
 42
0.0000000001
 43
0.0000000001
 40
0.0
 40
0.0
 40
0.0
 40
0.0
 40
0.3333333333333333
 40
0.3333333333333333
 40
0.3333333333333333
 40
0.3333333333333333
 40
0.6666666666666666
 40
0.6666666666666666
 40
0.6666666666666666
 40
0.6666666666666666
 40
1.0
 40
1.0
 40
1.0
 40
1.0
 10
4.2500999999999998
 20
24.653500000000001
 30
0.0
 10
4.2500999999999998
 20
24.653500000000001
 30
0.0
 10
4.0886000000000005
 20
24.653500000000001
 30
0.0
 10
4.0886000000000005
 20
24.653500000000001
 30
0.0
 10
4.0886000000000005
 20
24.653500000000001
 30
0.0
 10
4.0886000000000005
 20
24.653500000000001
 30
0.0
 10
3.8406000000000002
 20
24.653500000000001
 30
0.0
 10
3.8406000000000002
 20
24.653500000000001
 30
0.0
 10
3.8406000000000002
 20
24.653500000000001
 30
0.0
 10
3.8406000000000002
 20
24.653500000000001
 30
0.0
 10
3.395
 20
24.653500000000001
 30
0.0
 10
3.395
 20
24.653500000000001
 30
0.0
  0
SPLINE
  5
B4
100
AcDbEntity
  8
Ebene 1
370
    35
100
AcDbSpline
210
0.0
220
0.0
230
1.0
 70
     0
 71
     3
 72
     8
 73
     4
 74
     0
 42
0.0000000001
 43
0.0000000001
 40
0.0
 40
0.0
 40
0.0
 40
0.0
 40
1.0
 40
1.0
 40
1.0
 40
1.0
 10
1.2282
 20
24.653500000000001
 30
0.0
 10
1.2282
 20
24.653500000000001
 30
0.0
 10
1.2282
 20
24.553599999999999
 30
0.0
 10
1.2282
 20
24.553599999999999
 30
0.0
  0
SPLINE
  5
B5
100
AcDbEntity
  8
Ebene 1
370
    35
100
AcDbSpline
210
0.0
220
0.0
230
1.0
 70
     0
 71
     3
 72
    16
 73
    12
 74
     0
 42
0.0000000001
 43
0.0000000001
 40
0.0
 40
0.0
 40
0.0
 40
0.0
 40
0.3333333333333333
 40
0.3333333333333333
 40
0.3333333333333333
 40
0.3333333333333333
 40
0.6666666666666666
 40
0.6666666666666666
 40
0.6666666666666666
 40
0.6666666666666666
 40
1.0
 40
1.0
 40
1.0
 40
1.0
 10
1.7574000000000001
 20
24.653500000000001
 30
0.0
 10
1.7574000000000001
 20
24.653500000000001
 30
0.0
 10
1.6403000000000001
 20
24.653500000000001
 30
0.0
 10
1.6403000000000001
 20
24.653500000000001
 30
0.0
 10
1.6403000000000001
 20
24.653500000000001
 30
0.0
 10
1.6403000000000001
 20
24.653500000000001
 30
0.0
 10
1.4921
 20
24.653500000000001
 30
0.0
 10
1.4921
 20
24.653500000000001
 30
0.0
 10
1.4921
 20
24.653500000000001
 30
0.0
 10
1.4921
 20
24.653500000000001
 30
0.0
 10
1.2282
 20
24.653500000000001
 30
0.0
 10
1.2282
 20
24.653500000000001
 30
0.0
  0
SPLINE
  5
B6
100
AcDbEntity
  8
Ebene 1
370
    35
100
AcDbSpline
210
0.0
220
0.0
230
1.0
 70
     0
 71
     3
 72
     8
 73
     4
 74
     0
 42
0.0000000001
 43
0.0000000001
 40
0.0
 40
0.0
 40
0.0
 40
0.0
 40
1.0
 40
1.0
 40
1.0
 40
1.0
 10
18.721399999999999
 20
24.653500000000001
 30
0.0
 10
18.721399999999999
 20
24.653500000000001
 30
0.0
 10
18.721399999999999
 20
24.553599999999999
 30
0.0
 10
18.721399999999999
 20
24.553599999999999
 30
0.0
  0
SPLINE
  5
B7
100
AcDbEntity
  8
Ebene 1
370
    35
100
AcDbSpline
210
0.0
220
0.0
230
1.0
 70
     0
 71
     3
 72
    20
 73
    16
 74
     0
 42
0.0000000001
 43
0.0000000001
 40
0.0
 40
0.0
 40
0.0
 40
0.0
 40
0.25
 40
0.25
 40
0.25
 40
0.25
 40
0.5
 40
0.5
 40
0.5
 40
0.5
 40
0.75
 40
0.75
 40
0.75
 40
0.75
 40
1.0
 40
1.0
 40
1.0
 40
1.0
 10
19.352900000000002
 20
24.653500000000001
 30
0.0
 10
19.352900000000002
 20
24.653500000000001
 30
0.0
 10
18.9405
 20
24.653500000000001
 30
0.0
 10
18.9405
 20
24.653500000000001
 30
0.0
 10
18.9405
 20
24.653500000000001
 30
0.0
 10
18.9405
 20
24.653500000000001
 30
0.0
 10
18.781400000000001
 20
24.653500000000001
 30
0.0
 10
18.781400000000001
 20
24.653500000000001
 30
0.0
 10
18.781400000000001
 20
24.653500000000001
 30
0.0
 10
18.781400000000001
 20
24.653500000000001
 30
0.0
 10
18.7362
 20
24.653500000000001
 30
0.0
 10
18.7362
 20
24.653500000000001
 30
0.0
 10
18.7362
 20
24.653500000000001
 30
0.0
 10
18.7362
 20
24.653500000000001
 30
0.0
 10
18.721399999999999
 20
24.653500000000001
 30
0.0
 10
18.721399999999999
 20
24.653500000000001
 30
0.0
  0
SPLINE
  5
B8
100
AcDbEntity
  8
Ebene 1
370
    35
100
AcDbSpline
210
0.0
220
0.0
230
1.0
 70
     0
 71
     3
 72
     8
 73
     4
 74
     0
 42
0.0000000001
 43
0.0000000001
 40
0.0
 40
0.0
 40
0.0
 40
0.0
 40
1.0
 40
1.0
 40
1.0
 40
1.0
 10
10.843200000000001
 20
24.653500000000001
 30
0.0
 10
10.843200000000001
 20
24.653500000000001
 30
0.0
 10
10.843200000000001
 20
24.553599999999999
 30
0.0
 10
10.843200000000001
 20
24.553599999999999
 30
0.0
  0
SPLINE
  5
B9
100
AcDbEntity
  8
Ebene 1
370
    35
100
AcDbSpline
210
0.0
220
0.0
230
1.0
 70
     0
 71
     3
 72
     8
 73
     4
 74
     0
 42
0.0000000001
 43
0.0000000001
 40
0.0
 40
0.0
 40
0.0
 40
0.0
 40
1.0
 40
1.0
 40
1.0
 40
1.0
 10
11.951600000000001
 20
24.653500000000001
 30
0.0
 10
11.951600000000001
 20
24.653500000000001
 30
0.0
 10
11.951600000000001
 20
24.553599999999999
 30
0.0
 10
11.951600000000001
 20
24.553599999999999
 30
0.0
  0
SPLINE
  5
BA
100
AcDbEntity
  8
Ebene 1
370
    35
100
AcDbSpline
210
0.0
220
0.0
230
1.0
 70
     0
 71
     3
 72
    12
 73
     8
 74
     0
 42
0.0000000001
 43
0.0000000001
 40
0.0
 40
0.0
 40
0.0
 40
0.0
 40
0.5
 40
0.5
 40
0.5
 40
0.5
 40
1.0
 40
1.0
 40
1.0
 40
1.0
 10
11.951600000000001
 20
24.653500000000001
 30
0.0
 10
11.951600000000001
 20
24.653500000000001
 30
0.0
 10
11.352300000000001
 20
24.653500000000001
 30
0.0
 10
11.352300000000001
 20
24.653500000000001
 30
0.0
 10
11.352300000000001
 20
24.653500000000001
 30
0.0
 10
11.352300000000001
 20
24.653500000000001
 30
0.0
 10
10.843200000000001
 20
24.653500000000001
 30
0.0
 10
10.843200000000001
 20
24.653500000000001
 30
0.0
  0
SPLINE
  5
BB
100
AcDbEntity
  8
Ebene 1
370
    35
100
AcDbSpline
210
0.0
220
0.0
230
1.0
 70
     0
 71
     3
 72
     8
 73
     4
 74
     0
 42
0.0000000001
 43
0.0000000001
 40
0.0
 40
0.0
 40
0.0
 40
0.0
 40
1.0
 40
1.0
 40
1.0
 40
1.0
 10
13.247
 20
24.653500000000001
 30
0.0
 10
13.247
 20
24.653500000000001
 30
0.0
 10
13.247
 20
24.553599999999999
 30
0.0
 10
13.247
 20
24.553599999999999
 30
0.0
  0
SPLINE
  5
BC
100
AcDbEntity
  8
Ebene 1
370
    35
100
AcDbSpline
210
0.0
220
0.0
230
1.0
 70
     0
 71
     3
 72
     8
 73
     4
 74
     0
 42
0.0000000001
 43
0.0000000001
 40
0.0
 40
0.0
 40
0.0
 40
0.0
 40
1.0
 40
1.0
 40
1.0
 40
1.0
 10
14.101800000000001
 20
24.653500000000001
 30
0.0
 10
14.101800000000001
 20
24.653500000000001
 30
0.0
 10
14.101800000000001
 20
24.553599999999999
 30
0.0
 10
14.101800000000001
 20
24.553599999999999
 30
0.0
  0
SPLINE
  5
BD
100
AcDbEntity
  8
Ebene 1
370
    35
100
AcDbSpline
210
0.0
220
0.0
230
1.0
 70
     0
 71
     3
 72
    16
 73
    12
 74
     0
 42
0.0000000001
 43
0.0000000001
 40
0.0
 40
0.0
 40
0.0
 40
0.0
 40
0.3333333333333333
 40
0.3333333333333333
 40
0.3333333333333333
 40
0.3333333333333333
 40
0.6666666666666666
 40
0.6666666666666666
 40
0.6666666666666666
 40
0.6666666666666666
 40
1.0
 40
1.0
 40
1.0
 40
1.0
 10
14.101800000000001
 20
24.653500000000001
 30
0.0
 10
14.101800000000001
 20
24.653500000000001
 30
0.0
 10
13.940200000000001
 20
24.653500000000001
 30
0.0
 10
13.940200000000001
 20
24.653500000000001
 30
0.0
 10
13.940200000000001
 20
24.653500000000001
 30
0.0
 10
13.940200000000001
 20
24.653500000000001
 30
0.0
 10
13.692600000000001
 20
24.653500000000001
 30
0.0
 10
13.692600000000001
 20
24.653500000000001
 30
0.0
 10
13.692600000000001
 20
24.653500000000001
 30
0.0
 10
13.692600000000001
 20
24.653500000000001
 30
0.0
 10
13.247
 20
24.653500000000001
 30
0.0
 10
13.247
 20
24.653500000000001
 30
0.0
  0
SPLINE
  5
BE
100
AcDbEntity
  8
Ebene 1
370
    35
100
AcDbSpline
210
0.0
220
0.0
230
1.0
 70
     0
 71
     3
 72
     8
 73
     4
 74
     0
 42
0.0000000001
 43
0.0000000001
 40
0.0
 40
0.0
 40
0.0
 40
0.0
 40
1.0
 40
1.0
 40
1.0
 40
1.0
 10
9.4755000000000003
 20
24.653500000000001
 30
0.0
 10
9.4755000000000003
 20
24.653500000000001
 30
0.0
 10
9.4755000000000003
 20
24.553599999999999
 30
0.0
 10
9.4755000000000003
 20
24.553599999999999
 30
0.0
  0
SPLINE
  5
BF
100
AcDbEntity
  8
Ebene 1
370
    35
100
AcDbSpline
210
0.0
220
0.0
230
1.0
 70
     0
 71
     3
 72
    20
 73
    16
 74
     0
 42
0.0000000001
 43
0.0000000001
 40
0.0
 40
0.0
 40
0.0
 40
0.0
 40
0.25
 40
0.25
 40
0.25
 40
0.25
 40
0.5
 40
0.5
 40
0.5
 40
0.5
 40
0.75
 40
0.75
 40
0.75
 40
0.75
 40
1.0
 40
1.0
 40
1.0
 40
1.0
 10
10.843200000000001
 20
24.653500000000001
 30
0.0
 10
10.843200000000001
 20
24.653500000000001
 30
0.0
 10
10.3087
 20
24.653500000000001
 30
0.0
 10
10.3087
 20
24.653500000000001
 30
0.0
 10
10.3087
 20
24.653500000000001
 30
0.0
 10
10.3087
 20
24.653500000000001
 30
0.0
 10
9.8251000000000008
 20
24.653500000000001
 30
0.0
 10
9.8251000000000008
 20
24.653500000000001
 30
0.0
 10
9.8251000000000008
 20
24.653500000000001
 30
0.0
 10
9.8251000000000008
 20
24.653500000000001
 30
0.0
 10
9.565100000000001
 20
24.653500000000001
 30
0.0
 10
9.565100000000001
 20
24.653500000000001
 30
0.0
 10
9.565100000000001
 20
24.653500000000001
 30
0.0
 10
9.565100000000001
 20
24.653500000000001
 30
0.0
 10
9.4755000000000003
 20
24.653500000000001
 30
0.0
 10
9.4755000000000003
 20
24.653500000000001
 30
0.0
  0
SPLINE
  5
C0
100
AcDbEntity
  8
Ebene 1
370
    35
100
AcDbSpline
210
0.0
220
0.0
230
1.0
 70
     0
 71
     3
 72
     8
 73
     4
 74
     0
 42
0.0000000001
 43
0.0000000001
 40
0.0
 40
0.0
 40
0.0
 40
0.0
 40
1.0
 40
1.0
 40
1.0
 40
1.0
 10
0.414
 20
24.653500000000001
 30
0.0
 10
0.414
 20
24.653500000000001
 30
0.0
 10
0.414
 20
24.553599999999999
 30
0.0
 10
0.414
 20
24.553599999999999
 30
0.0
  0
SPLINE
  5
C1
100
AcDbEntity
  8
Ebene 1
370
    35
100
AcDbSpline
210
0.0
220
0.0
230
1.0
 70
     0
 71
     3
 72
    20
 73
    16
 74
     0
 42
0.0000000001
 43
0.0000000001
 40
0.0
 40
0.0
 40
0.0
 40
0.0
 40
0.25
 40
0.25
 40
0.25
 40
0.25
 40
0.5
 40
0.5
 40
0.5
 40
0.5
 40
0.75
 40
0.75
 40
0.75
 40
0.75
 40
1.0
 40
1.0
 40
1.0
 40
1.0
 10
1.2282
 20
24.653500000000001
 30
0.0
 10
1.2282
 20
24.653500000000001
 30
0.0
 10
0.8832000000000001
 20
24.653500000000001
 30
0.0
 10
0.8832000000000001
 20
24.653500000000001
 30
0.0
 10
0.8832000000000001
 20
24.653500000000001
 30
0.0
 10
0.8832000000000001
 20
24.653500000000001
 30
0.0
 10
0.5957
 20
24.653500000000001
 30
0.0
 10
0.5957
 20
24.653500000000001
 30
0.0
 10
0.5957
 20
24.653500000000001
 30
0.0
 10
0.5957
 20
24.653500000000001
 30
0.0
 10
0.4574
 20
24.653500000000001
 30
0.0
 10
0.4574
 20
24.653500000000001
 30
0.0
 10
0.4574
 20
24.653500000000001
 30
0.0
 10
0.4574
 20
24.653500000000001
 30
0.0
 10
0.414
 20
24.653500000000001
 30
0.0
 10
0.414
 20
24.653500000000001
 30
0.0
  0
SPLINE
  5
C2
100
AcDbEntity
  8
Ebene 1
370
    35
100
AcDbSpline
210
0.0
220
0.0
230
1.0
 70
     0
 71
     3
 72
     8
 73
     4
 74
     0
 42
0.0000000001
 43
0.0000000001
 40
0.0
 40
0.0
 40
0.0
 40
0.0
 40
1.0
 40
1.0
 40
1.0
 40
1.0
 10
12.320600000000001
 20
24.653500000000001
 30
0.0
 10
12.320600000000001
 20
24.653500000000001
 30
0.0
 10
12.320600000000001
 20
24.553599999999999
 30
0.0
 10
12.320600000000001
 20
24.553599999999999
 30
0.0
  0
SPLINE
  5
C3
100
AcDbEntity
  8
Ebene 1
370
    35
100
AcDbSpline
210
0.0
220
0.0
230
1.0
 70
     0
 71
     3
 72
    20
 73
    16
 74
     0
 42
0.0000000001
 43
0.0000000001
 40
0.0
 40
0.0
 40
0.0
 40
0.0
 40
0.25
 40
0.25
 40
0.25
 40
0.25
 40
0.5
 40
0.5
 40
0.5
 40
0.5
 40
0.75
 40
0.75
 40
0.75
 40
0.75
 40
1.0
 40
1.0
 40
1.0
 40
1.0
 10
13.247
 20
24.653500000000001
 30
0.0
 10
13.247
 20
24.653500000000001
 30
0.0
 10
12.871
 20
24.653500000000001
 30
0.0
 10
12.871
 20
24.653500000000001
 30
0.0
 10
12.871
 20
24.653500000000001
 30
0.0
 10
12.871
 20
24.653500000000001
 30
0.0
 10
12.539000000000001
 20
24.653500000000001
 30
0.0
 10
12.539000000000001
 20
24.653500000000001
 30
0.0
 10
12.539000000000001
 20
24.653500000000001
 30
0.0
 10
12.539000000000001
 20
24.653500000000001
 30
0.0
 10
12.370700000000001
 20
24.653500000000001
 30
0.0
 10
12.370700000000001
 20
24.653500000000001
 30
0.0
 10
12.370700000000001
 20
24.653500000000001
 30
0.0
 10
12.370700000000001
 20
24.653500000000001
 30
0.0
 10
12.320600000000001
 20
24.653500000000001
 30
0.0
 10
12.320600000000001
 20
24.653500000000001
 30
0.0
  0
SPLINE
  5
C4
100
AcDbEntity
  8
Ebene 1
370
    35
100
AcDbSpline
210
0.0
220
0.0
230
1.0
 70
     0
 71
     3
 72
     8
 73
     4
 74
     0
 42
0.0000000001
 43
0.0000000001
 40
0.0
 40
0.0
 40
0.0
 40
0.0
 40
1.0
 40
1.0
 40
1.0
 40
1.0
 10
2.4685999999999999
 20
24.653500000000001
 30
0.0
 10
2.4685999999999999
 20
24.653500000000001
 30
0.0
 10
2.4685999999999999
 20
24.553599999999999
 30
0.0
 10
2.4685999999999999
 20
24.553599999999999
 30
0.0
  0
SPLINE
  5
C5
100
AcDbEntity
  8
Ebene 1
370
    35
100
AcDbSpline
210
0.0
220
0.0
230
1.0
 70
     0
 71
     3
 72
    20
 73
    16
 74
     0
 42
0.0000000001
 43
0.0000000001
 40
0.0
 40
0.0
 40
0.0
 40
0.0
 40
0.25
 40
0.25
 40
0.25
 40
0.25
 40
0.5
 40
0.5
 40
0.5
 40
0.5
 40
0.75
 40
0.75
 40
0.75
 40
0.75
 40
1.0
 40
1.0
 40
1.0
 40
1.0
 10
3.395
 20
24.653500000000001
 30
0.0
 10
3.395
 20
24.653500000000001
 30
0.0
 10
3.0189000000000004
 20
24.653500000000001
 30
0.0
 10
3.0189000000000004
 20
24.653500000000001
 30
0.0
 10
3.0189000000000004
 20
24.653500000000001
 30
0.0
 10
3.0189000000000004
 20
24.653500000000001
 30
0.0
 10
2.6873
 20
24.653500000000001
 30
0.0
 10
2.6873
 20
24.653500000000001
 30
0.0
 10
2.6873
 20
24.653500000000001
 30
0.0
 10
2.6873
 20
24.653500000000001
 30
0.0
 10
2.5190000000000001
 20
24.653500000000001
 30
0.0
 10
2.5190000000000001
 20
24.653500000000001
 30
0.0
 10
2.5190000000000001
 20
24.653500000000001
 30
0.0
 10
2.5190000000000001
 20
24.653500000000001
 30
0.0
 10
2.4685999999999999
 20
24.653500000000001
 30
0.0
 10
2.4685999999999999
 20
24.653500000000001
 30
0.0
  0
SPLINE
  5
C6
100
AcDbEntity
  8
Ebene 1
370
    35
100
AcDbSpline
210
0.0
220
0.0
230
1.0
 70
     0
 71
     3
 72
     8
 73
     4
 74
     0
 42
0.0000000001
 43
0.0000000001
 40
0.0
 40
0.0
 40
0.0
 40
0.0
 40
1.0
 40
1.0
 40
1.0
 40
1.0
 10
15.724600000000001
 20
24.653500000000001
 30
0.0
 10
15.724600000000001
 20
24.653500000000001
 30
0.0
 10
15.724600000000001
 20
24.553599999999999
 30
0.0
 10
15.724600000000001
 20
24.553599999999999
 30
0.0
  0
SPLINE
  5
C7
100
AcDbEntity
  8
Ebene 1
370
    35
100
AcDbSpline
210
0.0
220
0.0
230
1.0
 70
     0
 71
     3
 72
     8
 73
     4
 74
     0
 42
0.0000000001
 43
0.0000000001
 40
0.0
 40
0.0
 40
0.0
 40
0.0
 40
1.0
 40
1.0
 40
1.0
 40
1.0
 10
16.040700000000001
 20
24.653500000000001
 30
0.0
 10
16.040700000000001
 20
24.653500000000001
 30
0.0
 10
15.724600000000001
 20
24.653500000000001
 30
0.0
 10
15.724600000000001
 20
24.653500000000001
 30
0.0
  0
SPLINE
  5
C8
100
AcDbEntity
  8
Ebene 1
370
    35
100
AcDbSpline
210
0.0
220
0.0
230
1.0
 70
     0
 71
     3
 72
     8
 73
     4
 74
     0
 42
0.0000000001
 43
0.0000000001
 40
0.0
 40
0.0
 40
0.0
 40
0.0
 40
1.0
 40
1.0
 40
1.0
 40
1.0
 10
16.040700000000001
 20
24.653500000000001
 30
0.0
 10
16.040700000000001
 20
24.653500000000001
 30
0.0
 10
16.040700000000001
 20
24.553599999999999
 30
0.0
 10
16.040700000000001
 20
24.553599999999999
 30
0.0
  0
SPLINE
  5
C9
100
AcDbEntity
  8
Ebene 1
370
    35
100
AcDbSpline
210
0.0
220
0.0
230
1.0
 70
     0
 71
     3
 72
     8
 73
     4
 74
     0
 42
0.0000000001
 43
0.0000000001
 40
0.0
 40
0.0
 40
0.0
 40
0.0
 40
1.0
 40
1.0
 40
1.0
 40
1.0
 10
6.4991000000000003
 20
24.653500000000001
 30
0.0
 10
6.4991000000000003
 20
24.653500000000001
 30
0.0
 10
6.4991000000000003
 20
24.553599999999999
 30
0.0
 10
6.4991000000000003
 20
24.553599999999999
 30
0.0
  0
SPLINE
  5
CA
100
AcDbEntity
  8
Ebene 1
370
    35
100
AcDbSpline
210
0.0
220
0.0
230
1.0
 70
     0
 71
     3
 72
     8
 73
     4
 74
     0
 42
0.0000000001
 43
0.0000000001
 40
0.0
 40
0.0
 40
0.0
 40
0.0
 40
1.0
 40
1.0
 40
1.0
 40
1.0
 10
6.8151999999999999
 20
24.653500000000001
 30
0.0
 10
6.8151999999999999
 20
24.653500000000001
 30
0.0
 10
6.4991000000000003
 20
24.653500000000001
 30
0.0
 10
6.4991000000000003
 20
24.653500000000001
 30
0.0
  0
SPLINE
  5
CB
100
AcDbEntity
  8
Ebene 1
370
    35
100
AcDbSpline
210
0.0
220
0.0
230
1.0
 70
     0
 71
     3
 72
     8
 73
     4
 74
     0
 42
0.0000000001
 43
0.0000000001
 40
0.0
 40
0.0
 40
0.0
 40
0.0
 40
1.0
 40
1.0
 40
1.0
 40
1.0
 10
6.8151999999999999
 20
24.653500000000001
 30
0.0
 10
6.8151999999999999
 20
24.653500000000001
 30
0.0
 10
6.8151999999999999
 20
24.553599999999999
 30
0.0
 10
6.8151999999999999
 20
24.553599999999999
 30
0.0
  0
SPLINE
  5
CC
100
AcDbEntity
  8
Ebene 1
370
    35
100
AcDbSpline
210
0.0
220
0.0
230
1.0
 70
     0
 71
     3
 72
     8
 73
     4
 74
     0
 42
0.0000000001
 43
0.0000000001
 40
0.0
 40
0.0
 40
0.0
 40
0.0
 40
1.0
 40
1.0
 40
1.0
 40
1.0
 10
-3.9188000000000001
 20
24.653500000000001
 30
0.0
 10
-3.9188000000000001
 20
24.653500000000001
 30
0.0
 10
-4.2486000000000006
 20
24.653500000000001
 30
0.0
 10
-4.2486000000000006
 20
24.653500000000001
 30
0.0
  0
SPLINE
  5
CD
100
AcDbEntity
  8
Ebene 1
370
    35
100
AcDbSpline
210
0.0
220
0.0
230
1.0
 70
     0
 71
     3
 72
     8
 73
     4
 74
     0
 42
0.0000000001
 43
0.0000000001
 40
0.0
 40
0.0
 40
0.0
 40
0.0
 40
1.0
 40
1.0
 40
1.0
 40
1.0
 10
17.990100000000002
 20
24.653500000000001
 30
0.0
 10
17.990100000000002
 20
24.653500000000001
 30
0.0
 10
17.990100000000002
 20
24.553599999999999
 30
0.0
 10
17.990100000000002
 20
24.553599999999999
 30
0.0
  0
SPLINE
  5
CE
100
AcDbEntity
  8
Ebene 1
370
    35
100
AcDbSpline
210
0.0
220
0.0
230
1.0
 70
     0
 71
     3
 72
     8
 73
     4
 74
     0
 42
0.0000000001
 43
0.0000000001
 40
0.0
 40
0.0
 40
0.0
 40
0.0
 40
1.0
 40
1.0
 40
1.0
 40
1.0
 10
18.3062
 20
24.653500000000001
 30
0.0
 10
18.3062
 20
24.653500000000001
 30
0.0
 10
17.990100000000002
 20
24.653500000000001
 30
0.0
 10
17.990100000000002
 20
24.653500000000001
 30
0.0
  0
SPLINE
  5
CF
100
AcDbEntity
  8
Ebene 1
370
    35
100
AcDbSpline
210
0.0
220
0.0
230
1.0
 70
     0
 71
     3
 72
     8
 73
     4
 74
     0
 42
0.0000000001
 43
0.0000000001
 40
0.0
 40
0.0
 40
0.0
 40
0.0
 40
1.0
 40
1.0
 40
1.0
 40
1.0
 10
18.3062
 20
24.653500000000001
 30
0.0
 10
18.3062
 20
24.653500000000001
 30
0.0
 10
18.3062
 20
24.553599999999999
 30
0.0
 10
18.3062
 20
24.553599999999999
 30
0.0
  0
SPLINE
  5
D0
100
AcDbEntity
  8
Ebene 1
370
    35
100
AcDbSpline
210
0.0
220
0.0
230
1.0
 70
     0
 71
     3
 72
     8
 73
     4
 74
     0
 42
0.0000000001
 43
0.0000000001
 40
0.0
 40
0.0
 40
0.0
 40
0.0
 40
1.0
 40
1.0
 40
1.0
 40
1.0
 10
1.7574000000000001
 20
24.653500000000001
 30
0.0
 10
1.7574000000000001
 20
24.653500000000001
 30
0.0
 10
1.7574000000000001
 20
24.553599999999999
 30
0.0
 10
1.7574000000000001
 20
24.553599999999999
 30
0.0
  0
SPLINE
  5
D1
100
AcDbEntity
  8
Ebene 1
370
    35
100
AcDbSpline
210
0.0
220
0.0
230
1.0
 70
     0
 71
     3
 72
     8
 73
     4
 74
     0
 42
0.0000000001
 43
0.0000000001
 40
0.0
 40
0.0
 40
0.0
 40
0.0
 40
1.0
 40
1.0
 40
1.0
 40
1.0
 10
2.0735000000000001
 20
24.653500000000001
 30
0.0
 10
2.0735000000000001
 20
24.653500000000001
 30
0.0
 10
2.0735000000000001
 20
24.553599999999999
 30
0.0
 10
2.0735000000000001
 20
24.553599999999999
 30
0.0
  0
SPLINE
  5
D2
100
AcDbEntity
  8
Ebene 1
370
    35
100
AcDbSpline
210
0.0
220
0.0
230
1.0
 70
     0
 71
     3
 72
     8
 73
     4
 74
     0
 42
0.0000000001
 43
0.0000000001
 40
0.0
 40
0.0
 40
0.0
 40
0.0
 40
1.0
 40
1.0
 40
1.0
 40
1.0
 10
2.0735000000000001
 20
24.653500000000001
 30
0.0
 10
2.0735000000000001
 20
24.653500000000001
 30
0.0
 10
1.7574000000000001
 20
24.653500000000001
 30
0.0
 10
1.7574000000000001
 20
24.653500000000001
 30
0.0
  0
SPLINE
  5
D3
100
AcDbEntity
  8
Ebene 1
370
    35
100
AcDbSpline
210
0.0
220
0.0
230
1.0
 70
     0
 71
     3
 72
     8
 73
     4
 74
     0
 42
0.0000000001
 43
0.0000000001
 40
0.0
 40
0.0
 40
0.0
 40
0.0
 40
1.0
 40
1.0
 40
1.0
 40
1.0
 10
5.6824000000000003
 20
24.653500000000001
 30
0.0
 10
5.6824000000000003
 20
24.653500000000001
 30
0.0
 10
5.6824000000000003
 20
24.553599999999999
 30
0.0
 10
5.6824000000000003
 20
24.553599999999999
 30
0.0
  0
SPLINE
  5
D4
100
AcDbEntity
  8
Ebene 1
370
    35
100
AcDbSpline
210
0.0
220
0.0
230
1.0
 70
     0
 71
     3
 72
     8
 73
     4
 74
     0
 42
0.0000000001
 43
0.0000000001
 40
0.0
 40
0.0
 40
0.0
 40
0.0
 40
1.0
 40
1.0
 40
1.0
 40
1.0
 10
5.9984999999999999
 20
24.653500000000001
 30
0.0
 10
5.9984999999999999
 20
24.653500000000001
 30
0.0
 10
5.9984999999999999
 20
24.553599999999999
 30
0.0
 10
5.9984999999999999
 20
24.553599999999999
 30
0.0
  0
SPLINE
  5
D5
100
AcDbEntity
  8
Ebene 1
370
    35
100
AcDbSpline
210
0.0
220
0.0
230
1.0
 70
     0
 71
     3
 72
     8
 73
     4
 74
     0
 42
0.0000000001
 43
0.0000000001
 40
0.0
 40
0.0
 40
0.0
 40
0.0
 40
1.0
 40
1.0
 40
1.0
 40
1.0
 10
5.9984999999999999
 20
24.653500000000001
 30
0.0
 10
5.9984999999999999
 20
24.653500000000001
 30
0.0
 10
5.6824000000000003
 20
24.653500000000001
 30
0.0
 10
5.6824000000000003
 20
24.653500000000001
 30
0.0
  0
SPLINE
  5
D6
100
AcDbEntity
  8
Ebene 1
370
    35
100
AcDbSpline
210
0.0
220
0.0
230
1.0
 70
     0
 71
     3
 72
     8
 73
     4
 74
     0
 42
0.0000000001
 43
0.0000000001
 40
0.0
 40
0.0
 40
0.0
 40
0.0
 40
1.0
 40
1.0
 40
1.0
 40
1.0
 10
-4.2486000000000006
 20
24.653500000000001
 30
0.0
 10
-4.2486000000000006
 20
24.653500000000001
 30
0.0
 10
-4.2486000000000006
 20
24.553599999999999
 30
0.0
 10
-4.2486000000000006
 20
24.553599999999999
 30
0.0
  0
SPLINE
  5
D7
100
AcDbEntity
  8
Ebene 1
370
    35
100
AcDbSpline
210
0.0
220
0.0
230
1.0
 70
     0
 71
     3
 72
     8
 73
     4
 74
     0
 42
0.0000000001
 43
0.0000000001
 40
0.0
 40
0.0
 40
0.0
 40
0.0
 40
1.0
 40
1.0
 40
1.0
 40
1.0
 10
-4.5908000000000007
 20
24.653500000000001
 30
0.0
 10
-4.5908000000000007
 20
24.653500000000001
 30
0.0
 10
-4.5908000000000007
 20
24.553599999999999
 30
0.0
 10
-4.5908000000000007
 20
24.553599999999999
 30
0.0
  0
SPLINE
  5
D8
100
AcDbEntity
  8
Ebene 1
370
    35
100
AcDbSpline
210
0.0
220
0.0
230
1.0
 70
     0
 71
     3
 72
     8
 73
     4
 74
     0
 42
0.0000000001
 43
0.0000000001
 40
0.0
 40
0.0
 40
0.0
 40
0.0
 40
1.0
 40
1.0
 40
1.0
 40
1.0
 10
-4.2486000000000006
 20
24.653500000000001
 30
0.0
 10
-4.2486000000000006
 20
24.653500000000001
 30
0.0
 10
-4.5908000000000007
 20
24.653500000000001
 30
0.0
 10
-4.5908000000000007
 20
24.653500000000001
 30
0.0
  0
SPLINE
  5
D9
100
AcDbEntity
  8
Ebene 1
370
    35
100
AcDbSpline
210
0.0
220
0.0
230
1.0
 70
     0
 71
     3
 72
     8
 73
     4
 74
     0
 42
0.0000000001
 43
0.0000000001
 40
0.0
 40
0.0
 40
0.0
 40
0.0
 40
1.0
 40
1.0
 40
1.0
 40
1.0
 10
8.0266000000000002
 20
24.653500000000001
 30
0.0
 10
8.0266000000000002
 20
24.653500000000001
 30
0.0
 10
8.0266000000000002
 20
24.553599999999999
 30
0.0
 10
8.0266000000000002
 20
24.553599999999999
 30
0.0
  0
SPLINE
  5
DA
100
AcDbEntity
  8
Ebene 1
370
    35
100
AcDbSpline
210
0.0
220
0.0
230
1.0
 70
     0
 71
     3
 72
     8
 73
     4
 74
     0
 42
0.0000000001
 43
0.0000000001
 40
0.0
 40
0.0
 40
0.0
 40
0.0
 40
1.0
 40
1.0
 40
1.0
 40
1.0
 10
7.7105000000000006
 20
24.653500000000001
 30
0.0
 10
7.7105000000000006
 20
24.653500000000001
 30
0.0
 10
7.7105000000000006
 20
24.553599999999999
 30
0.0
 10
7.7105000000000006
 20
24.553599999999999
 30
0.0
  0
SPLINE
  5
DB
100
AcDbEntity
  8
Ebene 1
370
    35
100
AcDbSpline
210
0.0
220
0.0
230
1.0
 70
     0
 71
     3
 72
     8
 73
     4
 74
     0
 42
0.0000000001
 43
0.0000000001
 40
0.0
 40
0.0
 40
0.0
 40
0.0
 40
1.0
 40
1.0
 40
1.0
 40
1.0
 10
8.0266000000000002
 20
24.653500000000001
 30
0.0
 10
8.0266000000000002
 20
24.653500000000001
 30
0.0
 10
7.7105000000000006
 20
24.653500000000001
 30
0.0
 10
7.7105000000000006
 20
24.653500000000001
 30
0.0
  0
SPLINE
  5
DC
100
AcDbEntity
  8
Ebene 1
370
    35
100
AcDbSpline
210
0.0
220
0.0
230
1.0
 70
     0
 71
     3
 72
     8
 73
     4
 74
     0
 42
0.0000000001
 43
0.0000000001
 40
0.0
 40
0.0
 40
0.0
 40
0.0
 40
1.0
 40
1.0
 40
1.0
 40
1.0
 10
16.857300000000002
 20
24.653500000000001
 30
0.0
 10
16.857300000000002
 20
24.653500000000001
 30
0.0
 10
16.857300000000002
 20
24.553599999999999
 30
0.0
 10
16.857300000000002
 20
24.553599999999999
 30
0.0
  0
SPLINE
  5
DD
100
AcDbEntity
  8
Ebene 1
370
    35
100
AcDbSpline
210
0.0
220
0.0
230
1.0
 70
     0
 71
     3
 72
     8
 73
     4
 74
     0
 42
0.0000000001
 43
0.0000000001
 40
0.0
 40
0.0
 40
0.0
 40
0.0
 40
1.0
 40
1.0
 40
1.0
 40
1.0
 10
17.173400000000001
 20
24.653500000000001
 30
0.0
 10
17.173400000000001
 20
24.653500000000001
 30
0.0
 10
16.857300000000002
 20
24.653500000000001
 30
0.0
 10
16.857300000000002
 20
24.653500000000001
 30
0.0
  0
SPLINE
  5
DE
100
AcDbEntity
  8
Ebene 1
370
    35
100
AcDbSpline
210
0.0
220
0.0
230
1.0
 70
     0
 71
     3
 72
     8
 73
     4
 74
     0
 42
0.0000000001
 43
0.0000000001
 40
0.0
 40
0.0
 40
0.0
 40
0.0
 40
1.0
 40
1.0
 40
1.0
 40
1.0
 10
17.173400000000001
 20
24.653500000000001
 30
0.0
 10
17.173400000000001
 20
24.653500000000001
 30
0.0
 10
17.173400000000001
 20
24.553599999999999
 30
0.0
 10
17.173400000000001
 20
24.553599999999999
 30
0.0
  0
SPLINE
  5
DF
100
AcDbEntity
  8
Ebene 1
370
    35
100
AcDbSpline
210
0.0
220
0.0
230
1.0
 70
     0
 71
     3
 72
     8
 73
     4
 74
     0
 42
0.0000000001
 43
0.0000000001
 40
0.0
 40
0.0
 40
0.0
 40
0.0
 40
1.0
 40
1.0
 40
1.0
 40
1.0
 10
14.822900000000001
 20
24.653500000000001
 30
0.0
 10
14.822900000000001
 20
24.653500000000001
 30
0.0
 10
14.5068
 20
24.653500000000001
 30
0.0
 10
14.5068
 20
24.653500000000001
 30
0.0
  0
SPLINE
  5
E0
100
AcDbEntity
  8
Ebene 1
370
    35
100
AcDbSpline
210
0.0
220
0.0
230
1.0
 70
     0
 71
     3
 72
     8
 73
     4
 74
     0
 42
0.0000000001
 43
0.0000000001
 40
0.0
 40
0.0
 40
0.0
 40
0.0
 40
1.0
 40
1.0
 40
1.0
 40
1.0
 10
14.5068
 20
24.653500000000001
 30
0.0
 10
14.5068
 20
24.653500000000001
 30
0.0
 10
14.5068
 20
24.553599999999999
 30
0.0
 10
14.5068
 20
24.553599999999999
 30
0.0
  0
SPLINE
  5
E1
100
AcDbEntity
  8
Ebene 1
370
    35
100
AcDbSpline
210
0.0
220
0.0
230
1.0
 70
     0
 71
     3
 72
     8
 73
     4
 74
     0
 42
0.0000000001
 43
0.0000000001
 40
0.0
 40
0.0
 40
0.0
 40
0.0
 40
1.0
 40
1.0
 40
1.0
 40
1.0
 10
14.822900000000001
 20
24.653500000000001
 30
0.0
 10
14.822900000000001
 20
24.653500000000001
 30
0.0
 10
14.822900000000001
 20
24.553599999999999
 30
0.0
 10
14.822900000000001
 20
24.553599999999999
 30
0.0
  0
SPLINE
  5
E2
100
AcDbEntity
  8
Ebene 1
370
    35
100
AcDbSpline
210
0.0
220
0.0
230
1.0
 70
     0
 71
     3
 72
     8
 73
     4
 74
     0
 42
0.0000000001
 43
0.0000000001
 40
0.0
 40
0.0
 40
0.0
 40
0.0
 40
1.0
 40
1.0
 40
1.0
 40
1.0
 10
0.1244
 20
24.653500000000001
 30
0.0
 10
0.1244
 20
24.653500000000001
 30
0.0
 10
0.1244
 20
24.553599999999999
 30
0.0
 10
0.1244
 20
24.553599999999999
 30
0.0
  0
SPLINE
  5
E3
100
AcDbEntity
  8
Ebene 1
370
    35
100
AcDbSpline
210
0.0
220
0.0
230
1.0
 70
     0
 71
     3
 72
     8
 73
     4
 74
     0
 42
0.0000000001
 43
0.0000000001
 40
0.0
 40
0.0
 40
0.0
 40
0.0
 40
1.0
 40
1.0
 40
1.0
 40
1.0
 10
0.1244
 20
24.653500000000001
 30
0.0
 10
0.1244
 20
24.653500000000001
 30
0.0
 10
0.0814
 20
24.653500000000001
 30
0.0
 10
0.0814
 20
24.653500000000001
 30
0.0
  0
SPLINE
  5
E4
100
AcDbEntity
  8
Ebene 1
370
    35
100
AcDbSpline
210
0.0
220
0.0
230
1.0
 70
     0
 71
     3
 72
     8
 73
     4
 74
     0
 42
0.0000000001
 43
0.0000000001
 40
0.0
 40
0.0
 40
0.0
 40
0.0
 40
1.0
 40
1.0
 40
1.0
 40
1.0
 10
14.109900000000001
 20
24.653500000000001
 30
0.0
 10
14.109900000000001
 20
24.653500000000001
 30
0.0
 10
14.109900000000001
 20
24.553599999999999
 30
0.0
 10
14.109900000000001
 20
24.553599999999999
 30
0.0
  0
SPLINE
  5
E5
100
AcDbEntity
  8
Ebene 1
370
    35
100
AcDbSpline
210
0.0
220
0.0
230
1.0
 70
     0
 71
     3
 72
     8
 73
     4
 74
     0
 42
0.0000000001
 43
0.0000000001
 40
0.0
 40
0.0
 40
0.0
 40
0.0
 40
1.0
 40
1.0
 40
1.0
 40
1.0
 10
14.111700000000001
 20
24.653500000000001
 30
0.0
 10
14.111700000000001
 20
24.653500000000001
 30
0.0
 10
14.111700000000001
 20
24.553599999999999
 30
0.0
 10
14.111700000000001
 20
24.553599999999999
 30
0.0
  0
SPLINE
  5
E6
100
AcDbEntity
  8
Ebene 1
370
    35
100
AcDbSpline
210
0.0
220
0.0
230
1.0
 70
     0
 71
     3
 72
    12
 73
     8
 74
     0
 42
0.0000000001
 43
0.0000000001
 40
0.0
 40
0.0
 40
0.0
 40
0.0
 40
0.5
 40
0.5
 40
0.5
 40
0.5
 40
1.0
 40
1.0
 40
1.0
 40
1.0
 10
14.111700000000001
 20
24.653500000000001
 30
0.0
 10
14.111700000000001
 20
24.653500000000001
 30
0.0
 10
14.111000000000001
 20
24.653500000000001
 30
0.0
 10
14.111000000000001
 20
24.653500000000001
 30
0.0
 10
14.111000000000001
 20
24.653500000000001
 30
0.0
 10
14.111000000000001
 20
24.653500000000001
 30
0.0
 10
14.109900000000001
 20
24.653500000000001
 30
0.0
 10
14.109900000000001
 20
24.653500000000001
 30
0.0
  0
SPLINE
  5
E7
100
AcDbEntity
  8
Ebene 1
370
    35
100
AcDbSpline
210
0.0
220
0.0
230
1.0
 70
     0
 71
     3
 72
     8
 73
     4
 74
     0
 42
0.0000000001
 43
0.0000000001
 40
0.0
 40
0.0
 40
0.0
 40
0.0
 40
1.0
 40
1.0
 40
1.0
 40
1.0
 10
14.109900000000001
 20
24.653500000000001
 30
0.0
 10
14.109900000000001
 20
24.653500000000001
 30
0.0
 10
14.101800000000001
 20
24.653500000000001
 30
0.0
 10
14.101800000000001
 20
24.653500000000001
 30
0.0
  0
SPLINE
  5
E8
100
AcDbEntity
  8
Ebene 1
370
    35
100
AcDbSpline
210
0.0
220
0.0
230
1.0
 70
     0
 71
     3
 72
     8
 73
     4
 74
     0
 42
0.0000000001
 43
0.0000000001
 40
0.0
 40
0.0
 40
0.0
 40
0.0
 40
1.0
 40
1.0
 40
1.0
 40
1.0
 10
4.2582000000000004
 20
24.653500000000001
 30
0.0
 10
4.2582000000000004
 20
24.653500000000001
 30
0.0
 10
4.2582000000000004
 20
24.553599999999999
 30
0.0
 10
4.2582000000000004
 20
24.553599999999999
 30
0.0
  0
SPLINE
  5
E9
100
AcDbEntity
  8
Ebene 1
370
    35
100
AcDbSpline
210
0.0
220
0.0
230
1.0
 70
     0
 71
     3
 72
     8
 73
     4
 74
     0
 42
0.0000000001
 43
0.0000000001
 40
0.0
 40
0.0
 40
0.0
 40
0.0
 40
1.0
 40
1.0
 40
1.0
 40
1.0
 10
4.2599999999999998
 20
24.653500000000001
 30
0.0
 10
4.2599999999999998
 20
24.653500000000001
 30
0.0
 10
4.2599999999999998
 20
24.553599999999999
 30
0.0
 10
4.2599999999999998
 20
24.553599999999999
 30
0.0
  0
SPLINE
  5
EA
100
AcDbEntity
  8
Ebene 1
370
    35
100
AcDbSpline
210
0.0
220
0.0
230
1.0
 70
     0
 71
     3
 72
    12
 73
     8
 74
     0
 42
0.0000000001
 43
0.0000000001
 40
0.0
 40
0.0
 40
0.0
 40
0.0
 40
0.5
 40
0.5
 40
0.5
 40
0.5
 40
1.0
 40
1.0
 40
1.0
 40
1.0
 10
4.2599999999999998
 20
24.653500000000001
 30
0.0
 10
4.2599999999999998
 20
24.653500000000001
 30
0.0
 10
4.2593000000000005
 20
24.653500000000001
 30
0.0
 10
4.2593000000000005
 20
24.653500000000001
 30
0.0
 10
4.2593000000000005
 20
24.653500000000001
 30
0.0
 10
4.2593000000000005
 20
24.653500000000001
 30
0.0
 10
4.2582000000000004
 20
24.653500000000001
 30
0.0
 10
4.2582000000000004
 20
24.653500000000001
 30
0.0
  0
SPLINE
  5
EB
100
AcDbEntity
  8
Ebene 1
370
    35
100
AcDbSpline
210
0.0
220
0.0
230
1.0
 70
     0
 71
     3
 72
     8
 73
     4
 74
     0
 42
0.0000000001
 43
0.0000000001
 40
0.0
 40
0.0
 40
0.0
 40
0.0
 40
1.0
 40
1.0
 40
1.0
 40
1.0
 10
4.2582000000000004
 20
24.653500000000001
 30
0.0
 10
4.2582000000000004
 20
24.653500000000001
 30
0.0
 10
4.2500999999999998
 20
24.653500000000001
 30
0.0
 10
4.2500999999999998
 20
24.653500000000001
 30
0.0
  0
SPLINE
  5
EC
100
AcDbEntity
  8
Ebene 1
370
    35
100
AcDbSpline
210
0.0
220
0.0
230
1.0
 70
     0
 71
     3
 72
     8
 73
     4
 74
     0
 42
0.0000000001
 43
0.0000000001
 40
0.0
 40
0.0
 40
0.0
 40
0.0
 40
1.0
 40
1.0
 40
1.0
 40
1.0
 10
16.5169
 20
24.653500000000001
 30
0.0
 10
16.5169
 20
24.653500000000001
 30
0.0
 10
16.5169
 20
24.553599999999999
 30
0.0
 10
16.5169
 20
24.553599999999999
 30
0.0
  0
SPLINE
  5
ED
100
AcDbEntity
  8
Ebene 1
370
    35
100
AcDbSpline
210
0.0
220
0.0
230
1.0
 70
     0
 71
     3
 72
    20
 73
    16
 74
     0
 42
0.0000000001
 43
0.0000000001
 40
0.0
 40
0.0
 40
0.0
 40
0.0
 40
0.25
 40
0.25
 40
0.25
 40
0.25
 40
0.5
 40
0.5
 40
0.5
 40
0.5
 40
0.75
 40
0.75
 40
0.75
 40
0.75
 40
1.0
 40
1.0
 40
1.0
 40
1.0
 10
16.5169
 20
24.653500000000001
 30
0.0
 10
16.5169
 20
24.653500000000001
 30
0.0
 10
16.293600000000001
 20
24.653500000000001
 30
0.0
 10
16.293600000000001
 20
24.653500000000001
 30
0.0
 10
16.293600000000001
 20
24.653500000000001
 30
0.0
 10
16.293600000000001
 20
24.653500000000001
 30
0.0
 10
16.115100000000002
 20
24.653500000000001
 30
0.0
 10
16.115100000000002
 20
24.653500000000001
 30
0.0
 10
16.115100000000002
 20
24.653500000000001
 30
0.0
 10
16.115100000000002
 20
24.653500000000001
 30
0.0
 10
16.054100000000002
 20
24.653500000000001
 30
0.0
 10
16.054100000000002
 20
24.653500000000001
 30
0.0
 10
16.054100000000002
 20
24.653500000000001
 30
0.0
 10
16.054100000000002
 20
24.653500000000001
 30
0.0
 10
16.040700000000001
 20
24.653500000000001
 30
0.0
 10
16.040700000000001
 20
24.653500000000001
 30
0.0
  0
SPLINE
  5
EE
100
AcDbEntity
  8
Ebene 1
370
    35
100
AcDbSpline
210
0.0
220
0.0
230
1.0
 70
     0
 71
     3
 72
     8
 73
     4
 74
     0
 42
0.0000000001
 43
0.0000000001
 40
0.0
 40
0.0
 40
0.0
 40
0.0
 40
1.0
 40
1.0
 40
1.0
 40
1.0
 10
14.8765
 20
24.653500000000001
 30
0.0
 10
14.8765
 20
24.653500000000001
 30
0.0
 10
14.8765
 20
24.553599999999999
 30
0.0
 10
14.8765
 20
24.553599999999999
 30
0.0
  0
SPLINE
  5
EF
100
AcDbEntity
  8
Ebene 1
370
    35
100
AcDbSpline
210
0.0
220
0.0
230
1.0
 70
     0
 71
     3
 72
    12
 73
     8
 74
     0
 42
0.0000000001
 43
0.0000000001
 40
0.0
 40
0.0
 40
0.0
 40
0.0
 40
0.5
 40
0.5
 40
0.5
 40
0.5
 40
1.0
 40
1.0
 40
1.0
 40
1.0
 10
14.8765
 20
24.653500000000001
 30
0.0
 10
14.8765
 20
24.653500000000001
 30
0.0
 10
14.832400000000002
 20
24.653500000000001
 30
0.0
 10
14.832400000000002
 20
24.653500000000001
 30
0.0
 10
14.832400000000002
 20
24.653500000000001
 30
0.0
 10
14.832400000000002
 20
24.653500000000001
 30
0.0
 10
14.822900000000001
 20
24.653500000000001
 30
0.0
 10
14.822900000000001
 20
24.653500000000001
 30
0.0
  0
SPLINE
  5
F0
100
AcDbEntity
  8
Ebene 1
370
    35
100
AcDbSpline
210
0.0
220
0.0
230
1.0
 70
     0
 71
     3
 72
     8
 73
     4
 74
     0
 42
0.0000000001
 43
0.0000000001
 40
0.0
 40
0.0
 40
0.0
 40
0.0
 40
1.0
 40
1.0
 40
1.0
 40
1.0
 10
7.3172000000000006
 20
24.653500000000001
 30
0.0
 10
7.3172000000000006
 20
24.653500000000001
 30
0.0
 10
7.3172000000000006
 20
24.553599999999999
 30
0.0
 10
7.3172000000000006
 20
24.553599999999999
 30
0.0
  0
SPLINE
  5
F1
100
AcDbEntity
  8
Ebene 1
370
    35
100
AcDbSpline
210
0.0
220
0.0
230
1.0
 70
     0
 71
     3
 72
    20
 73
    16
 74
     0
 42
0.0000000001
 43
0.0000000001
 40
0.0
 40
0.0
 40
0.0
 40
0.0
 40
0.25
 40
0.25
 40
0.25
 40
0.25
 40
0.5
 40
0.5
 40
0.5
 40
0.5
 40
0.75
 40
0.75
 40
0.75
 40
0.75
 40
1.0
 40
1.0
 40
1.0
 40
1.0
 10
7.3172000000000006
 20
24.653500000000001
 30
0.0
 10
7.3172000000000006
 20
24.653500000000001
 30
0.0
 10
7.0963000000000003
 20
24.653500000000001
 30
0.0
 10
7.0963000000000003
 20
24.653500000000001
 30
0.0
 10
7.0963000000000003
 20
24.653500000000001
 30
0.0
 10
7.0963000000000003
 20
24.653500000000001
 30
0.0
 10
6.9076000000000004
 20
24.653500000000001
 30
0.0
 10
6.9076000000000004
 20
24.653500000000001
 30
0.0
 10
6.9076000000000004
 20
24.653500000000001
 30
0.0
 10
6.9076000000000004
 20
24.653500000000001
 30
0.0
 10
6.8332000000000006
 20
24.653500000000001
 30
0.0
 10
6.8332000000000006
 20
24.653500000000001
 30
0.0
 10
6.8332000000000006
 20
24.653500000000001
 30
0.0
 10
6.8332000000000006
 20
24.653500000000001
 30
0.0
 10
6.8151999999999999
 20
24.653500000000001
 30
0.0
 10
6.8151999999999999
 20
24.653500000000001
 30
0.0
  0
SPLINE
  5
F2
100
AcDbEntity
  8
Ebene 1
370
    35
100
AcDbSpline
210
0.0
220
0.0
230
1.0
 70
     0
 71
     3
 72
     8
 73
     4
 74
     0
 42
0.0000000001
 43
0.0000000001
 40
0.0
 40
0.0
 40
0.0
 40
0.0
 40
1.0
 40
1.0
 40
1.0
 40
1.0
 10
17.6465
 20
24.653500000000001
 30
0.0
 10
17.6465
 20
24.653500000000001
 30
0.0
 10
17.6465
 20
24.553599999999999
 30
0.0
 10
17.6465
 20
24.553599999999999
 30
0.0
  0
SPLINE
  5
F3
100
AcDbEntity
  8
Ebene 1
370
    35
100
AcDbSpline
210
0.0
220
0.0
230
1.0
 70
     0
 71
     3
 72
    20
 73
    16
 74
     0
 42
0.0000000001
 43
0.0000000001
 40
0.0
 40
0.0
 40
0.0
 40
0.0
 40
0.25
 40
0.25
 40
0.25
 40
0.25
 40
0.5
 40
0.5
 40
0.5
 40
0.5
 40
0.75
 40
0.75
 40
0.75
 40
0.75
 40
1.0
 40
1.0
 40
1.0
 40
1.0
 10
17.6465
 20
24.653500000000001
 30
0.0
 10
17.6465
 20
24.653500000000001
 30
0.0
 10
17.4451
 20
24.653500000000001
 30
0.0
 10
17.4451
 20
24.653500000000001
 30
0.0
 10
17.4451
 20
24.653500000000001
 30
0.0
 10
17.4451
 20
24.653500000000001
 30
0.0
 10
17.2715
 20
24.653500000000001
 30
0.0
 10
17.2715
 20
24.653500000000001
 30
0.0
 10
17.2715
 20
24.653500000000001
 30
0.0
 10
17.2715
 20
24.653500000000001
 30
0.0
 10
17.194300000000002
 20
24.653500000000001
 30
0.0
 10
17.194300000000002
 20
24.653500000000001
 30
0.0
 10
17.194300000000002
 20
24.653500000000001
 30
0.0
 10
17.194300000000002
 20
24.653500000000001
 30
0.0
 10
17.173400000000001
 20
24.653500000000001
 30
0.0
 10
17.173400000000001
 20
24.653500000000001
 30
0.0
  0
SPLINE
  5
F4
100
AcDbEntity
  8
Ebene 1
370
    35
100
AcDbSpline
210
0.0
220
0.0
230
1.0
 70
     0
 71
     3
 72
    20
 73
    16
 74
     0
 42
0.0000000001
 43
0.0000000001
 40
0.0
 40
0.0
 40
0.0
 40
0.0
 40
0.25
 40
0.25
 40
0.25
 40
0.25
 40
0.5
 40
0.5
 40
0.5
 40
0.5
 40
0.75
 40
0.75
 40
0.75
 40
0.75
 40
1.0
 40
1.0
 40
1.0
 40
1.0
 10
7.7105000000000006
 20
24.653500000000001
 30
0.0
 10
7.7105000000000006
 20
24.653500000000001
 30
0.0
 10
7.6915000000000004
 20
24.653500000000001
 30
0.0
 10
7.6915000000000004
 20
24.653500000000001
 30
0.0
 10
7.6915000000000004
 20
24.653500000000001
 30
0.0
 10
7.6915000000000004
 20
24.653500000000001
 30
0.0
 10
7.5878000000000005
 20
24.653500000000001
 30
0.0
 10
7.5878000000000005
 20
24.653500000000001
 30
0.0
 10
7.5878000000000005
 20
24.653500000000001
 30
0.0
 10
7.5878000000000005
 20
24.653500000000001
 30
0.0
 10
7.4579000000000004
 20
24.653500000000001
 30
0.0
 10
7.4579000000000004
 20
24.653500000000001
 30
0.0
 10
7.4579000000000004
 20
24.653500000000001
 30
0.0
 10
7.4579000000000004
 20
24.653500000000001
 30
0.0
 10
7.3172000000000006
 20
24.653500000000001
 30
0.0
 10
7.3172000000000006
 20
24.653500000000001
 30
0.0
  0
SPLINE
  5
F5
100
AcDbEntity
  8
Ebene 1
370
    35
100
AcDbSpline
210
0.0
220
0.0
230
1.0
 70
     0
 71
     3
 72
    20
 73
    16
 74
     0
 42
0.0000000001
 43
0.0000000001
 40
0.0
 40
0.0
 40
0.0
 40
0.0
 40
0.25
 40
0.25
 40
0.25
 40
0.25
 40
0.5
 40
0.5
 40
0.5
 40
0.5
 40
0.75
 40
0.75
 40
0.75
 40
0.75
 40
1.0
 40
1.0
 40
1.0
 40
1.0
 10
17.990100000000002
 20
24.653500000000001
 30
0.0
 10
17.990100000000002
 20
24.653500000000001
 30
0.0
 10
17.976400000000002
 20
24.653500000000001
 30
0.0
 10
17.976400000000002
 20
24.653500000000001
 30
0.0
 10
17.976400000000002
 20
24.653500000000001
 30
0.0
 10
17.976400000000002
 20
24.653500000000001
 30
0.0
 10
17.889200000000002
 20
24.653500000000001
 30
0.0
 10
17.889200000000002
 20
24.653500000000001
 30
0.0
 10
17.889200000000002
 20
24.653500000000001
 30
0.0
 10
17.889200000000002
 20
24.653500000000001
 30
0.0
 10
17.773199999999999
 20
24.653500000000001
 30
0.0
 10
17.773199999999999
 20
24.653500000000001
 30
0.0
 10
17.773199999999999
 20
24.653500000000001
 30
0.0
 10
17.773199999999999
 20
24.653500000000001
 30
0.0
 10
17.6465
 20
24.653500000000001
 30
0.0
 10
17.6465
 20
24.653500000000001
 30
0.0
  0
SPLINE
  5
F6
100
AcDbEntity
  8
Ebene 1
370
    35
100
AcDbSpline
210
0.0
220
0.0
230
1.0
 70
     0
 71
     3
 72
    20
 73
    16
 74
     0
 42
0.0000000001
 43
0.0000000001
 40
0.0
 40
0.0
 40
0.0
 40
0.0
 40
0.25
 40
0.25
 40
0.25
 40
0.25
 40
0.5
 40
0.5
 40
0.5
 40
0.5
 40
0.75
 40
0.75
 40
0.75
 40
0.75
 40
1.0
 40
1.0
 40
1.0
 40
1.0
 10
16.857300000000002
 20
24.653500000000001
 30
0.0
 10
16.857300000000002
 20
24.653500000000001
 30
0.0
 10
16.835800000000003
 20
24.653500000000001
 30
0.0
 10
16.835800000000003
 20
24.653500000000001
 30
0.0
 10
16.835800000000003
 20
24.653500000000001
 30
0.0
 10
16.835800000000003
 20
24.653500000000001
 30
0.0
 10
16.7483
 20
24.653500000000001
 30
0.0
 10
16.7483
 20
24.653500000000001
 30
0.0
 10
16.7483
 20
24.653500000000001
 30
0.0
 10
16.7483
 20
24.653500000000001
 30
0.0
 10
16.6372
 20
24.653500000000001
 30
0.0
 10
16.6372
 20
24.653500000000001
 30
0.0
 10
16.6372
 20
24.653500000000001
 30
0.0
 10
16.6372
 20
24.653500000000001
 30
0.0
 10
16.5169
 20
24.653500000000001
 30
0.0
 10
16.5169
 20
24.653500000000001
 30
0.0
  0
SPLINE
  5
F7
100
AcDbEntity
  8
Ebene 1
370
    35
100
AcDbSpline
210
0.0
220
0.0
230
1.0
 70
     0
 71
     3
 72
     8
 73
     4
 74
     0
 42
0.0000000001
 43
0.0000000001
 40
0.0
 40
0.0
 40
0.0
 40
0.0
 40
1.0
 40
1.0
 40
1.0
 40
1.0
 10
15.185500000000001
 20
24.653500000000001
 30
0.0
 10
15.185500000000001
 20
24.653500000000001
 30
0.0
 10
15.185500000000001
 20
24.553599999999999
 30
0.0
 10
15.185500000000001
 20
24.553599999999999
 30
0.0
  0
SPLINE
  5
F8
100
AcDbEntity
  8
Ebene 1
370
    35
100
AcDbSpline
210
0.0
220
0.0
230
1.0
 70
     0
 71
     3
 72
    20
 73
    16
 74
     0
 42
0.0000000001
 43
0.0000000001
 40
0.0
 40
0.0
 40
0.0
 40
0.0
 40
0.25
 40
0.25
 40
0.25
 40
0.25
 40
0.5
 40
0.5
 40
0.5
 40
0.5
 40
0.75
 40
0.75
 40
0.75
 40
0.75
 40
1.0
 40
1.0
 40
1.0
 40
1.0
 10
15.185500000000001
 20
24.653500000000001
 30
0.0
 10
15.185500000000001
 20
24.653500000000001
 30
0.0
 10
15.0783
 20
24.653500000000001
 30
0.0
 10
15.0783
 20
24.653500000000001
 30
0.0
 10
15.0783
 20
24.653500000000001
 30
0.0
 10
15.0783
 20
24.653500000000001
 30
0.0
 10
14.980600000000001
 20
24.653500000000001
 30
0.0
 10
14.980600000000001
 20
24.653500000000001
 30
0.0
 10
14.980600000000001
 20
24.653500000000001
 30
0.0
 10
14.980600000000001
 20
24.653500000000001
 30
0.0
 10
14.9185
 20
24.653500000000001
 30
0.0
 10
14.9185
 20
24.653500000000001
 30
0.0
 10
14.9185
 20
24.653500000000001
 30
0.0
 10
14.9185
 20
24.653500000000001
 30
0.0
 10
14.8765
 20
24.653500000000001
 30
0.0
 10
14.8765
 20
24.653500000000001
 30
0.0
  0
SPLINE
  5
F9
100
AcDbEntity
  8
Ebene 1
370
    35
100
AcDbSpline
210
0.0
220
0.0
230
1.0
 70
     0
 71
     3
 72
     8
 73
     4
 74
     0
 42
0.0000000001
 43
0.0000000001
 40
0.0
 40
0.0
 40
0.0
 40
0.0
 40
1.0
 40
1.0
 40
1.0
 40
1.0
 10
15.420800000000002
 20
24.653500000000001
 30
0.0
 10
15.420800000000002
 20
24.653500000000001
 30
0.0
 10
15.420800000000002
 20
24.553599999999999
 30
0.0
 10
15.420800000000002
 20
24.553599999999999
 30
0.0
  0
SPLINE
  5
FA
100
AcDbEntity
  8
Ebene 1
370
    35
100
AcDbSpline
210
0.0
220
0.0
230
1.0
 70
     0
 71
     3
 72
    12
 73
     8
 74
     0
 42
0.0000000001
 43
0.0000000001
 40
0.0
 40
0.0
 40
0.0
 40
0.0
 40
0.5
 40
0.5
 40
0.5
 40
0.5
 40
1.0
 40
1.0
 40
1.0
 40
1.0
 10
15.420800000000002
 20
24.653500000000001
 30
0.0
 10
15.420800000000002
 20
24.653500000000001
 30
0.0
 10
15.293100000000001
 20
24.653500000000001
 30
0.0
 10
15.293100000000001
 20
24.653500000000001
 30
0.0
 10
15.293100000000001
 20
24.653500000000001
 30
0.0
 10
15.293100000000001
 20
24.653500000000001
 30
0.0
 10
15.185500000000001
 20
24.653500000000001
 30
0.0
 10
15.185500000000001
 20
24.653500000000001
 30
0.0
  0
SPLINE
  5
FB
100
AcDbEntity
  8
Ebene 1
370
    35
100
AcDbSpline
210
0.0
220
0.0
230
1.0
 70
     0
 71
     3
 72
     8
 73
     4
 74
     0
 42
0.0000000001
 43
0.0000000001
 40
0.0
 40
0.0
 40
0.0
 40
0.0
 40
1.0
 40
1.0
 40
1.0
 40
1.0
 10
15.5341
 20
24.653500000000001
 30
0.0
 10
15.5341
 20
24.653500000000001
 30
0.0
 10
15.5341
 20
24.553599999999999
 30
0.0
 10
15.5341
 20
24.553599999999999
 30
0.0
  0
SPLINE
  5
FC
100
AcDbEntity
  8
Ebene 1
370
    35
100
AcDbSpline
210
0.0
220
0.0
230
1.0
 70
     0
 71
     3
 72
     8
 73
     4
 74
     0
 42
0.0000000001
 43
0.0000000001
 40
0.0
 40
0.0
 40
0.0
 40
0.0
 40
1.0
 40
1.0
 40
1.0
 40
1.0
 10
15.5341
 20
24.653500000000001
 30
0.0
 10
15.5341
 20
24.653500000000001
 30
0.0
 10
15.420800000000002
 20
24.653500000000001
 30
0.0
 10
15.420800000000002
 20
24.653500000000001
 30
0.0
  0
SPLINE
  5
FD
100
AcDbEntity
  8
Ebene 1
370
    35
100
AcDbSpline
210
0.0
220
0.0
230
1.0
 70
     0
 71
     3
 72
     8
 73
     4
 74
     0
 42
0.0000000001
 43
0.0000000001
 40
0.0
 40
0.0
 40
0.0
 40
0.0
 40
1.0
 40
1.0
 40
1.0
 40
1.0
 10
-5.9085000000000001
 20
24.653500000000001
 30
0.0
 10
-5.9085000000000001
 20
24.653500000000001
 30
0.0
 10
-5.9085000000000001
 20
24.553599999999999
 30
0.0
 10
-5.9085000000000001
 20
24.553599999999999
 30
0.0
  0
SPLINE
  5
FE
100
AcDbEntity
  8
Ebene 1
370
    35
100
AcDbSpline
210
0.0
220
0.0
230
1.0
 70
     0
 71
     3
 72
     8
 73
     4
 74
     0
 42
0.0000000001
 43
0.0000000001
 40
0.0
 40
0.0
 40
0.0
 40
0.0
 40
1.0
 40
1.0
 40
1.0
 40
1.0
 10
-4.5908000000000007
 20
24.653500000000001
 30
0.0
 10
-4.5908000000000007
 20
24.653500000000001
 30
0.0
 10
-5.9085000000000001
 20
24.653500000000001
 30
0.0
 10
-5.9085000000000001
 20
24.653500000000001
 30
0.0
  0
SPLINE
  5
FF
100
AcDbEntity
  8
Ebene 1
370
    35
100
AcDbSpline
210
0.0
220
0.0
230
1.0
 70
     0
 71
     3
 72
     8
 73
     4
 74
     0
 42
0.0000000001
 43
0.0000000001
 40
0.0
 40
0.0
 40
0.0
 40
0.0
 40
1.0
 40
1.0
 40
1.0
 40
1.0
 10
2.0735000000000001
 20
24.653500000000001
 30
0.0
 10
2.0735000000000001
 20
24.653500000000001
 30
0.0
 10
2.4852000000000003
 20
24.653500000000001
 30
0.0
 10
2.4852000000000003
 20
24.653500000000001
 30
0.0
  0
SPLINE
  5
100
100
AcDbEntity
  8
Ebene 1
370
    35
100
AcDbSpline
210
0.0
220
0.0
230
1.0
 70
     0
 71
     3
 72
     8
 73
     4
 74
     0
 42
0.0000000001
 43
0.0000000001
 40
0.0
 40
0.0
 40
0.0
 40
0.0
 40
1.0
 40
1.0
 40
1.0
 40
1.0
 10
4.8336000000000006
 20
24.653500000000001
 30
0.0
 10
4.8336000000000006
 20
24.653500000000001
 30
0.0
 10
4.8336000000000006
 20
24.553599999999999
 30
0.0
 10
4.8336000000000006
 20
24.553599999999999
 30
0.0
  0
SPLINE
  5
101
100
AcDbEntity
  8
Ebene 1
370
    35
100
AcDbSpline
210
0.0
220
0.0
230
1.0
 70
     0
 71
     3
 72
     8
 73
     4
 74
     0
 42
0.0000000001
 43
0.0000000001
 40
0.0
 40
0.0
 40
0.0
 40
0.0
 40
1.0
 40
1.0
 40
1.0
 40
1.0
 10
4.3079999999999998
 20
24.653500000000001
 30
0.0
 10
4.3079999999999998
 20
24.653500000000001
 30
0.0
 10
4.8336000000000006
 20
24.653500000000001
 30
0.0
 10
4.8336000000000006
 20
24.653500000000001
 30
0.0
  0
SPLINE
  5
102
100
AcDbEntity
  8
Ebene 1
370
    35
100
AcDbSpline
210
0.0
220
0.0
230
1.0
 70
     0
 71
     3
 72
     8
 73
     4
 74
     0
 42
0.0000000001
 43
0.0000000001
 40
0.0
 40
0.0
 40
0.0
 40
0.0
 40
1.0
 40
1.0
 40
1.0
 40
1.0
 10
5.9984999999999999
 20
24.653500000000001
 30
0.0
 10
5.9984999999999999
 20
24.653500000000001
 30
0.0
 10
6.4991000000000003
 20
24.653500000000001
 30
0.0
 10
6.4991000000000003
 20
24.653500000000001
 30
0.0
  0
SPLINE
  5
103
100
AcDbEntity
  8
Ebene 1
370
    35
100
AcDbSpline
210
0.0
220
0.0
230
1.0
 70
     0
 71
     3
 72
     8
 73
     4
 74
     0
 42
0.0000000001
 43
0.0000000001
 40
0.0
 40
0.0
 40
0.0
 40
0.0
 40
1.0
 40
1.0
 40
1.0
 40
1.0
 10
6.8151999999999999
 20
24.653500000000001
 30
0.0
 10
6.8151999999999999
 20
24.653500000000001
 30
0.0
 10
6.9207000000000001
 20
24.653500000000001
 30
0.0
 10
6.9207000000000001
 20
24.653500000000001
 30
0.0
  0
SPLINE
  5
104
100
AcDbEntity
  8
Ebene 1
370
    35
100
AcDbSpline
210
0.0
220
0.0
230
1.0
 70
     0
 71
     3
 72
     8
 73
     4
 74
     0
 42
0.0000000001
 43
0.0000000001
 40
0.0
 40
0.0
 40
0.0
 40
0.0
 40
1.0
 40
1.0
 40
1.0
 40
1.0
 10
7.5003000000000002
 20
24.653500000000001
 30
0.0
 10
7.5003000000000002
 20
24.653500000000001
 30
0.0
 10
7.7105000000000006
 20
24.653500000000001
 30
0.0
 10
7.7105000000000006
 20
24.653500000000001
 30
0.0
  0
SPLINE
  5
105
100
AcDbEntity
  8
Ebene 1
370
    35
100
AcDbSpline
210
0.0
220
0.0
230
1.0
 70
     0
 71
     3
 72
     8
 73
     4
 74
     0
 42
0.0000000001
 43
0.0000000001
 40
0.0
 40
0.0
 40
0.0
 40
0.0
 40
1.0
 40
1.0
 40
1.0
 40
1.0
 10
8.0266000000000002
 20
24.653500000000001
 30
0.0
 10
8.0266000000000002
 20
24.653500000000001
 30
0.0
 10
9.4176000000000002
 20
24.653500000000001
 30
0.0
 10
9.4176000000000002
 20
24.653500000000001
 30
0.0
  0
SPLINE
  5
106
100
AcDbEntity
  8
Ebene 1
370
    35
100
AcDbSpline
210
0.0
220
0.0
230
1.0
 70
     0
 71
     3
 72
     8
 73
     4
 74
     0
 42
0.0000000001
 43
0.0000000001
 40
0.0
 40
0.0
 40
0.0
 40
0.0
 40
1.0
 40
1.0
 40
1.0
 40
1.0
 10
12.009500000000001
 20
24.653500000000001
 30
0.0
 10
12.009500000000001
 20
24.653500000000001
 30
0.0
 10
12.3118
 20
24.653500000000001
 30
0.0
 10
12.3118
 20
24.653500000000001
 30
0.0
  0
SPLINE
  5
107
100
AcDbEntity
  8
Ebene 1
370
    35
100
AcDbSpline
210
0.0
220
0.0
230
1.0
 70
     0
 71
     3
 72
     8
 73
     4
 74
     0
 42
0.0000000001
 43
0.0000000001
 40
0.0
 40
0.0
 40
0.0
 40
0.0
 40
1.0
 40
1.0
 40
1.0
 40
1.0
 10
12.3118
 20
24.653500000000001
 30
0.0
 10
12.3118
 20
24.653500000000001
 30
0.0
 10
12.3118
 20
24.553599999999999
 30
0.0
 10
12.3118
 20
24.553599999999999
 30
0.0
  0
SPLINE
  5
108
100
AcDbEntity
  8
Ebene 1
370
    35
100
AcDbSpline
210
0.0
220
0.0
230
1.0
 70
     0
 71
     3
 72
     8
 73
     4
 74
     0
 42
0.0000000001
 43
0.0000000001
 40
0.0
 40
0.0
 40
0.0
 40
0.0
 40
1.0
 40
1.0
 40
1.0
 40
1.0
 10
14.2828
 20
24.653500000000001
 30
0.0
 10
14.2828
 20
24.653500000000001
 30
0.0
 10
14.2828
 20
24.553599999999999
 30
0.0
 10
14.2828
 20
24.553599999999999
 30
0.0
  0
SPLINE
  5
109
100
AcDbEntity
  8
Ebene 1
370
    35
100
AcDbSpline
210
0.0
220
0.0
230
1.0
 70
     0
 71
     3
 72
     8
 73
     4
 74
     0
 42
0.0000000001
 43
0.0000000001
 40
0.0
 40
0.0
 40
0.0
 40
0.0
 40
1.0
 40
1.0
 40
1.0
 40
1.0
 10
14.2828
 20
24.653500000000001
 30
0.0
 10
14.2828
 20
24.653500000000001
 30
0.0
 10
14.5068
 20
24.653500000000001
 30
0.0
 10
14.5068
 20
24.653500000000001
 30
0.0
  0
SPLINE
  5
10A
100
AcDbEntity
  8
Ebene 1
370
    35
100
AcDbSpline
210
0.0
220
0.0
230
1.0
 70
     0
 71
     3
 72
     8
 73
     4
 74
     0
 42
0.0000000001
 43
0.0000000001
 40
0.0
 40
0.0
 40
0.0
 40
0.0
 40
1.0
 40
1.0
 40
1.0
 40
1.0
 10
18.3062
 20
24.653500000000001
 30
0.0
 10
18.3062
 20
24.653500000000001
 30
0.0
 10
18.663600000000002
 20
24.653500000000001
 30
0.0
 10
18.663600000000002
 20
24.653500000000001
 30
0.0
  0
SPLINE
  5
10B
100
AcDbEntity
  8
Ebene 1
370
    35
100
AcDbSpline
210
0.0
220
0.0
230
1.0
 70
     0
 71
     3
 72
     8
 73
     4
 74
     0
 42
0.0000000001
 43
0.0000000001
 40
0.0
 40
0.0
 40
0.0
 40
0.0
 40
1.0
 40
1.0
 40
1.0
 40
1.0
 10
17.173400000000001
 20
24.653500000000001
 30
0.0
 10
17.173400000000001
 20
24.653500000000001
 30
0.0
 10
17.1812
 20
24.653500000000001
 30
0.0
 10
17.1812
 20
24.653500000000001
 30
0.0
  0
SPLINE
  5
10C
100
AcDbEntity
  8
Ebene 1
370
    35
100
AcDbSpline
210
0.0
220
0.0
230
1.0
 70
     0
 71
     3
 72
     8
 73
     4
 74
     0
 42
0.0000000001
 43
0.0000000001
 40
0.0
 40
0.0
 40
0.0
 40
0.0
 40
1.0
 40
1.0
 40
1.0
 40
1.0
 10
4.8336000000000006
 20
24.653500000000001
 30
0.0
 10
4.8336000000000006
 20
24.653500000000001
 30
0.0
 10
5.6824000000000003
 20
24.653500000000001
 30
0.0
 10
5.6824000000000003
 20
24.653500000000001
 30
0.0
  0
SPLINE
  5
10D
100
AcDbEntity
  8
Ebene 1
370
    35
100
AcDbSpline
210
0.0
220
0.0
230
1.0
 70
     0
 71
     3
 72
    16
 73
    12
 74
     0
 42
0.0000000001
 43
0.0000000001
 40
0.0
 40
0.0
 40
0.0
 40
0.0
 40
0.3333333333333333
 40
0.3333333333333333
 40
0.3333333333333333
 40
0.3333333333333333
 40
0.6666666666666666
 40
0.6666666666666666
 40
0.6666666666666666
 40
0.6666666666666666
 40
1.0
 40
1.0
 40
1.0
 40
1.0
 10
-5.9197000000000006
 20
24.653500000000001
 30
0.0
 10
-5.9197000000000006
 20
24.653500000000001
 30
0.0
 10
-5.9194000000000004
 20
24.653500000000001
 30
0.0
 10
-5.9194000000000004
 20
24.653500000000001
 30
0.0
 10
-5.9194000000000004
 20
24.653500000000001
 30
0.0
 10
-5.9194000000000004
 20
24.653500000000001
 30
0.0
 10
-5.9159000000000006
 20
24.653500000000001
 30
0.0
 10
-5.9159000000000006
 20
24.653500000000001
 30
0.0
 10
-5.9159000000000006
 20
24.653500000000001
 30
0.0
 10
-5.9159000000000006
 20
24.653500000000001
 30
0.0
 10
-5.9085000000000001
 20
24.653500000000001
 30
0.0
 10
-5.9085000000000001
 20
24.653500000000001
 30
0.0
  0
SPLINE
  5
10E
100
AcDbEntity
  8
Ebene 1
370
    35
100
AcDbSpline
210
0.0
220
0.0
230
1.0
 70
     0
 71
     3
 72
    24
 73
    20
 74
     0
 42
0.0000000001
 43
0.0000000001
 40
0.0
 40
0.0
 40
0.0
 40
0.0
 40
0.2
 40
0.2
 40
0.2
 40
0.2
 40
0.4
 40
0.4
 40
0.4
 40
0.4
 40
0.6000000000000001
 40
0.6000000000000001
 40
0.6000000000000001
 40
0.6000000000000001
 40
0.8
 40
0.8
 40
0.8
 40
0.8
 40
1.0
 40
1.0
 40
1.0
 40
1.0
 10
15.420800000000002
 20
24.653500000000001
 30
0.0
 10
15.420800000000002
 20
24.653500000000001
 30
0.0
 10
15.418000000000001
 20
24.653500000000001
 30
0.0
 10
15.418000000000001
 20
24.653500000000001
 30
0.0
 10
15.418000000000001
 20
24.653500000000001
 30
0.0
 10
15.418000000000001
 20
24.653500000000001
 30
0.0
 10
15.403600000000001
 20
24.653500000000001
 30
0.0
 10
15.403600000000001
 20
24.653500000000001
 30
0.0
 10
15.403600000000001
 20
24.653500000000001
 30
0.0
 10
15.403600000000001
 20
24.653500000000001
 30
0.0
 10
15.393000000000001
 20
24.653500000000001
 30
0.0
 10
15.393000000000001
 20
24.653500000000001
 30
0.0
 10
15.393000000000001
 20
24.653500000000001
 30
0.0
 10
15.393000000000001
 20
24.653500000000001
 30
0.0
 10
15.3863
 20
24.653500000000001
 30
0.0
 10
15.3863
 20
24.653500000000001
 30
0.0
 10
15.3863
 20
24.653500000000001
 30
0.0
 10
15.3863
 20
24.653500000000001
 30
0.0
 10
15.3841
 20
24.653500000000001
 30
0.0
 10
15.3841
 20
24.653500000000001
 30
0.0
  0
SPLINE
  5
10F
100
AcDbEntity
  8
Ebene 1
370
    35
100
AcDbSpline
210
0.0
220
0.0
230
1.0
 70
     0
 71
     3
 72
     8
 73
     4
 74
     0
 42
0.0000000001
 43
0.0000000001
 40
0.0
 40
0.0
 40
0.0
 40
0.0
 40
1.0
 40
1.0
 40
1.0
 40
1.0
 10
14.166700000000001
 20
24.653500000000001
 30
0.0
 10
14.166700000000001
 20
24.653500000000001
 30
0.0
 10
14.166700000000001
 20
24.553599999999999
 30
0.0
 10
14.166700000000001
 20
24.553599999999999
 30
0.0
  0
SPLINE
  5
110
100
AcDbEntity
  8
Ebene 1
370
    35
100
AcDbSpline
210
0.0
220
0.0
230
1.0
 70
     0
 71
     3
 72
    36
 73
    32
 74
     0
 42
0.0000000001
 43
0.0000000001
 40
0.0
 40
0.0
 40
0.0
 40
0.0
 40
0.125
 40
0.125
 40
0.125
 40
0.125
 40
0.25
 40
0.25
 40
0.25
 40
0.25
 40
0.375
 40
0.375
 40
0.375
 40
0.375
 40
0.5
 40
0.5
 40
0.5
 40
0.5
 40
0.625
 40
0.625
 40
0.625
 40
0.625
 40
0.75
 40
0.75
 40
0.75
 40
0.75
 40
0.875
 40
0.875
 40
0.875
 40
0.875
 40
1.0
 40
1.0
 40
1.0
 40
1.0
 10
14.2828
 20
24.653500000000001
 30
0.0
 10
14.2828
 20
24.653500000000001
 30
0.0
 10
14.280700000000001
 20
24.653500000000001
 30
0.0
 10
14.280700000000001
 20
24.653500000000001
 30
0.0
 10
14.280700000000001
 20
24.653500000000001
 30
0.0
 10
14.280700000000001
 20
24.653500000000001
 30
0.0
 10
14.274000000000001
 20
24.653500000000001
 30
0.0
 10
14.274000000000001
 20
24.653500000000001
 30
0.0
 10
14.274000000000001
 20
24.653500000000001
 30
0.0
 10
14.274000000000001
 20
24.653500000000001
 30
0.0
 10
14.263400000000001
 20
24.653500000000001
 30
0.0
 10
14.263400000000001
 20
24.653500000000001
 30
0.0
 10
14.263400000000001
 20
24.653500000000001
 30
0.0
 10
14.263400000000001
 20
24.653500000000001
 30
0.0
 10
14.248900000000001
 20
24.653500000000001
 30
0.0
 10
14.248900000000001
 20
24.653500000000001
 30
0.0
 10
14.248900000000001
 20
24.653500000000001
 30
0.0
 10
14.248900000000001
 20
24.653500000000001
 30
0.0
 10
14.231300000000001
 20
24.653500000000001
 30
0.0
 10
14.231300000000001
 20
24.653500000000001
 30
0.0
 10
14.231300000000001
 20
24.653500000000001
 30
0.0
 10
14.231300000000001
 20
24.653500000000001
 30
0.0
 10
14.2112
 20
24.653500000000001
 30
0.0
 10
14.2112
 20
24.653500000000001
 30
0.0
 10
14.2112
 20
24.653500000000001
 30
0.0
 10
14.2112
 20
24.653500000000001
 30
0.0
 10
14.189300000000001
 20
24.653500000000001
 30
0.0
 10
14.189300000000001
 20
24.653500000000001
 30
0.0
 10
14.189300000000001
 20
24.653500000000001
 30
0.0
 10
14.189300000000001
 20
24.653500000000001
 30
0.0
 10
14.166700000000001
 20
24.653500000000001
 30
0.0
 10
14.166700000000001
 20
24.653500000000001
 30
0.0
  0
SPLINE
  5
111
100
AcDbEntity
  8
Ebene 1
370
    35
100
AcDbSpline
210
0.0
220
0.0
230
1.0
 70
     0
 71
     3
 72
     8
 73
     4
 74
     0
 42
0.0000000001
 43
0.0000000001
 40
0.0
 40
0.0
 40
0.0
 40
0.0
 40
1.0
 40
1.0
 40
1.0
 40
1.0
 10
15.5341
 20
24.653500000000001
 30
0.0
 10
15.5341
 20
24.653500000000001
 30
0.0
 10
15.724600000000001
 20
24.653500000000001
 30
0.0
 10
15.724600000000001
 20
24.653500000000001
 30
0.0
  0
SPLINE
  5
112
100
AcDbEntity
  8
Ebene 1
370
    35
100
AcDbSpline
210
0.0
220
0.0
230
1.0
 70
     0
 71
     3
 72
     8
 73
     4
 74
     0
 42
0.0000000001
 43
0.0000000001
 40
0.0
 40
0.0
 40
0.0
 40
0.0
 40
1.0
 40
1.0
 40
1.0
 40
1.0
 10
14.159700000000001
 20
24.653500000000001
 30
0.0
 10
14.159700000000001
 20
24.653500000000001
 30
0.0
 10
14.166700000000001
 20
24.653500000000001
 30
0.0
 10
14.166700000000001
 20
24.653500000000001
 30
0.0
  0
SPLINE
  5
113
100
AcDbEntity
  8
Ebene 1
370
    35
100
AcDbSpline
210
0.0
220
0.0
230
1.0
 70
     0
 71
     3
 72
    16
 73
    12
 74
     0
 42
0.0000000001
 43
0.0000000001
 40
0.0
 40
0.0
 40
0.0
 40
0.0
 40
0.3333333333333333
 40
0.3333333333333333
 40
0.3333333333333333
 40
0.3333333333333333
 40
0.6666666666666666
 40
0.6666666666666666
 40
0.6666666666666666
 40
0.6666666666666666
 40
1.0
 40
1.0
 40
1.0
 40
1.0
 10
26.081100000000003
 20
9.0536000000000012
 30
0.0
 10
26.081100000000003
 20
9.0536000000000012
 30
0.0
 10
26.070500000000003
 20
9.0536000000000012
 30
0.0
 10
26.070500000000003
 20
9.0536000000000012
 30
0.0
 10
26.070500000000003
 20
9.0536000000000012
 30
0.0
 10
26.070500000000003
 20
9.0536000000000012
 30
0.0
 10
26.014800000000001
 20
9.0536000000000012
 30
0.0
 10
26.014800000000001
 20
9.0536000000000012
 30
0.0
 10
26.014800000000001
 20
9.0536000000000012
 30
0.0
 10
26.014800000000001
 20
9.0536000000000012
 30
0.0
 10
25.913900000000002
 20
9.0536000000000012
 30
0.0
 10
25.913900000000002
 20
9.0536000000000012
 30
0.0
  0
ENDSEC
  0
SECTION
  2
OBJECTS
  0
DICTIONARY
  5
19
100
AcDbDictionary
280
     0
281
     1
  3
ACAD_GROUP
350
1A
  3
ACAD_MLINESTYLE
350
1B
  3
ACAD_LAYOUT
350
1E
  3
ACAD_PLOTSETTINGS
350
22
  3
ACAD_PLOTSTYLENAME
350
1F
  3
ACAD_WIPEOUT_VARS
350
23
  0
DICTIONARY
  5
1A
102
{ACAD_REACTORS
330
19
102
}
100
AcDbDictionary
280
     0
281
     1
  0
DICTIONARY
  5
1B
102
{ACAD_REACTORS
330
19
102
}
100
AcDbDictionary
280
     0
281
     1
  3
Standard
350
1C
  0
MLINESTYLE
  5
1C
102
{ACAD_REACTORS
330
1B
102
}
100
AcDbMlineStyle
  2
Standard
 70
     0
  3

 62
     0
 51
90.0
 52
90.0
 71
     2
 49
0.5
 62
   256
  6
BYLAYER
 49
-0.5
 62
   256
  6
BYLAYER
  0
ACDBDICTIONARYWDFLT
  5
1F
102
{ACAD_REACTORS
330
19
102
}
100
AcDbDictionary
281
     1
  3
Normal
350
1D
100
AcDbDictionaryWithDefault
340
1D
  0
ACDBPLACEHOLDER
  5
1D
102
{ACAD_REACTORS
330
1F
102
}
  0
LAYOUT
  5
20
102
{ACAD_REACTORS
330
1E
102
}
100
AcDbPlotSettings
  1

  2

  4

  6

 40
0.0
 41
0.0
 42
0.0
 43
0.0
 44
0.0
 45
0.0
 46
0.0
 47
0.0
 48
0.0
 49
0.0
140
0.0
141
0.0
142
1.0
143
1.0
 70
  1024
 72
     0
 73
     0
 74
     0
  7

 75
     0
147
1.0
148
0.0
149
0.0
100
AcDbLayout
  1
Model
 70
     0
 71
     0
 10
0.0
 20
0.0
 11
0.0
 21
0.0
 12
0.0
 22
0.0
 32
0.0
 14
0.0
 24
0.0
 34
0.0
 15
0.0
 25
0.0
 35
0.0
146
0.0
 13
0.0
 23
0.0
 33
0.0
 16
0.0
 26
0.0
 36
0.0
 17
0.0
 27
0.0
 37
0.0
 76
     0
330
A
331
0
345
0
346
0
  0
LAYOUT
  5
21
102
{ACAD_REACTORS
330
1E
102
}
100
AcDbPlotSettings
  1

  2

  4

  6

 40
0.0
 41
0.0
 42
0.0
 43
0.0
 44
0.0
 45
0.0
 46
0.0
 47
0.0
 48
0.0
 49
0.0
140
0.0
141
0.0
142
1.0
143
1.0
 70
     0
 72
     0
 73
     0
 74
     0
  7

 75
     0
147
1.0
148
0.0
149
0.0
100
AcDbLayout
  1
Layout1
 70
     0
 71
     0
 10
0.0
 20
0.0
 11
0.0
 21
0.0
 12
0.0
 22
0.0
 32
0.0
 14
0.0
 24
0.0
 34
0.0
 15
0.0
 25
0.0
 35
0.0
146
0.0
 13
0.0
 23
0.0
 33
0.0
 16
0.0
 26
0.0
 36
0.0
 17
0.0
 27
0.0
 37
0.0
 76
     0
330
B
331
0
345
0
346
0
  0
DICTIONARY
  5
1E
102
{ACAD_REACTORS
330
19
102
}
100
AcDbDictionary
280
     0
281
     1
  3
Layout1
350
21
  3
Model
350
20
  0
DICTIONARY
  5
22
102
{ACAD_REACTORS
330
19
102
}
100
AcDbDictionary
280
     0
281
     1
  0
WIPEOUTVARIABLES
  5
23
100
AcDbWipeoutVariables
 70
     1
  0
ENDSEC
  0
EOF
